  0
SECTION
  2
HEADER
  9
$ACADVER
  1
AC1015
  9
$ACADMAINTVER
 70
     6
  9
$DWGCODEPAGE
  3
ANSI_1252
  9
$INSBASE
 10
0.0
 20
0.0
 30
0.0
  9
$EXTMIN
 10
0.0
 20
0.0
 30
0.0
  9
$EXTMAX
 10
60.0
 20
38.0
 30
0.0
  9
$LIMMIN
 10
0.0
 20
0.0
  9
$LIMMAX
 10
60.0
 20
38.0
  9
$ORTHOMODE
 70
     0
  9
$REGENMODE
 70
     1
  9
$FILLMODE
 70
     1
  9
$QTEXTMODE
 70
     0
  9
$MIRRTEXT
 70
     1
  9
$LTSCALE
 40
1.0
  9
$ATTMODE
 70
     1
  9
$TEXTSIZE
 40
0.1666666667
  9
$TRACEWID
 40
0.05
  9
$TEXTSTYLE
  7
Standard
  9
$CLAYER
  8
0
  9
$CELTYPE
  6
ByLayer
  9
$CECOLOR
 62
   256
  9
$CELTSCALE
 40
1.0
  9
$DISPSILH
 70
     0
  9
$DIMSCALE
 40
1.0
  9
$DIMASZ
 40
0.09
  9
$DIMEXO
 40
0.05
  9
$DIMDLI
 40
0.38
  9
$DIMRND
 40
0.0
  9
$DIMDLE
 40
0.0
  9
$DIMEXE
 40
0.0625
  9
$DIMTP
 40
0.0
  9
$DIMTM
 40
0.0
  9
$DIMTXT
 40
0.1666666667
  9
$DIMCEN
 40
0.09
  9
$DIMTSZ
 40
0.0
  9
$DIMTOL
 70
     0
  9
$DIMLIM
 70
     0
  9
$DIMTIH
 70
     1
  9
$DIMTOH
 70
     1
  9
$DIMSE1
 70
     0
  9
$DIMSE2
 70
     0
  9
$DIMTAD
 70
     0
  9
$DIMZIN
 70
     0
  9
$DIMBLK
  1

  9
$DIMASO
 70
     1
  9
$DIMSHO
 70
     1
  9
$DIMPOST
  1

  9
$DIMAPOST
  1

  9
$DIMALT
 70
     0
  9
$DIMALTD
 70
     2
  9
$DIMALTF
 40
25.4
  9
$DIMLFAC
 40
24.0
  9
$DIMTOFL
 70
     0
  9
$DIMTVP
 40
0.0
  9
$DIMTIX
 70
     0
  9
$DIMSOXD
 70
     0
  9
$DIMSAH
 70
     0
  9
$DIMBLK1
  1

  9
$DIMBLK2
  1

  9
$DIMSTYLE
  2
Standard
  9
$DIMCLRD
 70
     0
  9
$DIMCLRE
 70
     0
  9
$DIMCLRT
 70
     0
  9
$DIMTFAC
 40
1.0
  9
$DIMGAP
 40
0.06
  9
$DIMJUST
 70
     0
  9
$DIMSD1
 70
     0
  9
$DIMSD2
 70
     0
  9
$DIMTOLJ
 70
     1
  9
$DIMTZIN
 70
     0
  9
$DIMALTZ
 70
     0
  9
$DIMALTTZ
 70
     0
  9
$DIMUPT
 70
     0
  9
$DIMDEC
 70
     2
  9
$DIMTDEC
 70
     2
  9
$DIMALTU
 70
     2
  9
$DIMALTTD
 70
     2
  9
$DIMTXSTY
  7
Standard
  9
$DIMAUNIT
 70
     0
  9
$DIMADEC
 70
     0
  9
$DIMALTRND
 40
0.0
  9
$DIMAZIN
 70
     0
  9
$DIMDSEP
 70
    46
  9
$DIMATFIT
 70
     3
  9
$DIMFRAC
 70
     0
  9
$DIMLDRBLK
  1

  9
$DIMLUNIT
 70
     2
  9
$DIMLWD
 70
    -2
  9
$DIMLWE
 70
    -2
  9
$DIMTMOVE
 70
     0
  9
$LUNITS
 70
     2
  9
$LUPREC
 70
     2
  9
$SKETCHINC
 40
0.1
  9
$FILLETRAD
 40
0.5
  9
$AUNITS
 70
     0
  9
$AUPREC
 70
     0
  9
$MENU
  1
.
  9
$ELEVATION
 40
0.0
  9
$PELEVATION
 40
0.0
  9
$THICKNESS
 40
0.0
  9
$LIMCHECK
 70
     0
  9
$CHAMFERA
 40
0.5
  9
$CHAMFERB
 40
0.5
  9
$CHAMFERC
 40
1.0
  9
$CHAMFERD
 40
0.0
  9
$SKPOLY
 70
     0
  9
$TDCREATE
 40
2455464.420751099
  9
$TDUCREATE
 40
2455464.629084433
  9
$TDUPDATE
 40
2455464.420751111
  9
$TDUUPDATE
 40
2455464.629084445
  9
$TDINDWG
 40
0.0000000116
  9
$TDUSRTIMER
 40
0.0000000116
  9
$USRTIMER
 70
     1
  9
$ANGBASE
 50
0.0
  9
$ANGDIR
 70
     0
  9
$PDMODE
 70
     0
  9
$PDSIZE
 40
-1.0
  9
$PLINEWID
 40
0.0
  9
$SPLFRAME
 70
     0
  9
$SPLINETYPE
 70
     6
  9
$SPLINESEGS
 70
     8
  9
$HANDSEED
  5
1B7
  9
$SURFTAB1
 70
     6
  9
$SURFTAB2
 70
     6
  9
$SURFTYPE
 70
     6
  9
$SURFU
 70
     6
  9
$SURFV
 70
     6
  9
$UCSBASE
  2

  9
$UCSNAME
  2

  9
$UCSORG
 10
0.0
 20
0.0
 30
0.0
  9
$UCSXDIR
 10
1.0
 20
0.0
 30
0.0
  9
$UCSYDIR
 10
0.0
 20
1.0
 30
0.0
  9
$UCSORTHOREF
  2

  9
$UCSORTHOVIEW
 70
     0
  9
$UCSORGTOP
 10
0.0
 20
0.0
 30
0.0
  9
$UCSORGBOTTOM
 10
0.0
 20
0.0
 30
0.0
  9
$UCSORGLEFT
 10
0.0
 20
0.0
 30
0.0
  9
$UCSORGRIGHT
 10
0.0
 20
0.0
 30
0.0
  9
$UCSORGFRONT
 10
0.0
 20
0.0
 30
0.0
  9
$UCSORGBACK
 10
0.0
 20
0.0
 30
0.0
  9
$PUCSBASE
  2

  9
$PUCSNAME
  2

  9
$PUCSORG
 10
0.0
 20
0.0
 30
0.0
  9
$PUCSXDIR
 10
1.0
 20
0.0
 30
0.0
  9
$PUCSYDIR
 10
0.0
 20
1.0
 30
0.0
  9
$PUCSORTHOREF
  2

  9
$PUCSORTHOVIEW
 70
     0
  9
$PUCSORGTOP
 10
0.0
 20
0.0
 30
0.0
  9
$PUCSORGBOTTOM
 10
0.0
 20
0.0
 30
0.0
  9
$PUCSORGLEFT
 10
0.0
 20
0.0
 30
0.0
  9
$PUCSORGRIGHT
 10
0.0
 20
0.0
 30
0.0
  9
$PUCSORGFRONT
 10
0.0
 20
0.0
 30
0.0
  9
$PUCSORGBACK
 10
0.0
 20
0.0
 30
0.0
  9
$USERI1
 70
     0
  9
$USERI2
 70
     0
  9
$USERI3
 70
     0
  9
$USERI4
 70
     0
  9
$USERI5
 70
     0
  9
$USERR1
 40
0.0
  9
$USERR2
 40
0.0
  9
$USERR3
 40
0.0
  9
$USERR4
 40
0.0
  9
$USERR5
 40
0.0
  9
$WORLDVIEW
 70
     1
  9
$SHADEDGE
 70
     3
  9
$SHADEDIF
 70
    70
  9
$TILEMODE
 70
     1
  9
$MAXACTVP
 70
    64
  9
$PINSBASE
 10
0.0
 20
0.0
 30
0.0
  9
$PLIMCHECK
 70
     0
  9
$PEXTMIN
 10
1.0000000000E+20
 20
1.0000000000E+20
 30
1.0000000000E+20
  9
$PEXTMAX
 10
-1.0000000000E+20
 20
-1.0000000000E+20
 30
-1.0000000000E+20
  9
$PLIMMIN
 10
0.0
 20
0.0
  9
$PLIMMAX
 10
12.0
 20
9.0
  9
$UNITMODE
 70
     0
  9
$VISRETAIN
 70
     1
  9
$PLINEGEN
 70
     0
  9
$PSLTSCALE
 70
     1
  9
$TREEDEPTH
 70
  3020
  9
$CMLSTYLE
  2
Standard
  9
$CMLJUST
 70
     0
  9
$CMLSCALE
 40
1.0
  9
$PROXYGRAPHICS
 70
     1
  9
$MEASUREMENT
 70
     0
  9
$CELWEIGHT
370
    -1
  9
$ENDCAPS
280
     0
  9
$JOINSTYLE
280
     0
  9
$LWDISPLAY
290
     1
  9
$INSUNITS
 70
     1
  9
$HYPERLINKBASE
  1

  9
$STYLESHEET
  1

  9
$XEDIT
290
     1
  9
$CEPSNTYPE
380
     0
  9
$PSTYLEMODE
290
     1
  9
$FINGERPRINTGUID
  2
{6C3DF523-4CBF-4749-B2F0-A1DF85369449}
  9
$VERSIONGUID
  2
{FAEB1C32-E019-11D5-929B-00C0DF256EC4}
  9
$EXTNAMES
290
     1
  9
$PSVPSCALE
 40
0.0
  9
$OLESTARTUP
290
     0
  0
ENDSEC
  0
SECTION
  2
CLASSES
  0
CLASS
  1
ACDBDICTIONARYWDFLT
  2
AcDbDictionaryWithDefault
  3
ObjectDBX Classes
 90
        0
280
     0
281
     0
  0
CLASS
  1
VISUALSTYLE
  2
AcDbVisualStyle
  3
ObjectDBX Classes
 90
     4095
280
     0
281
     0
  0
CLASS
  1
MATERIAL
  2
AcDbMaterial
  3
ObjectDBX Classes
 90
     1153
280
     0
281
     0
  0
CLASS
  1
SCALE
  2
AcDbScale
  3
ObjectDBX Classes
 90
     1153
280
     0
281
     0
  0
CLASS
  1
DICTIONARYVAR
  2
AcDbDictionaryVar
  3
ObjectDBX Classes
 90
        0
280
     0
281
     0
  0
CLASS
  1
ACDBPLACEHOLDER
  2
AcDbPlaceHolder
  3
ObjectDBX Classes
 90
        0
280
     0
281
     0
  0
CLASS
  1
LAYOUT
  2
AcDbLayout
  3
ObjectDBX Classes
 90
        0
280
     0
281
     0
  0
ENDSEC
  0
SECTION
  2
TABLES
  0
TABLE
  2
VPORT
  5
8
330
0
100
AcDbSymbolTable
 70
     1
  0
VPORT
  5
29
330
8
100
AcDbSymbolTableRecord
100
AcDbViewportTableRecord
  2
*Active
 70
     0
 10
0.0
 20
0.0
 11
1.0
 21
1.0
 12
30.0
 22
19.0
 13
0.0
 23
0.0
 14
0.5
 24
0.5
 15
0.5
 25
0.5
 16
0.0
 26
0.0
 36
1.0
 17
0.0
 27
0.0
 37
0.0
 40
38.0
 41
1.5789473684
 42
50.0
 43
0.0
 44
0.0
 50
0.0
 51
0.0
 71
     0
 72
  2000
 73
     1
 74
     3
 75
     0
 76
     0
 77
     0
 78
     0
281
     0
 65
     1
110
0.0
120
0.0
130
0.0
111
1.0
121
0.0
131
0.0
112
0.0
122
1.0
132
0.0
 79
     0
146
0.0
  0
ENDTAB
  0
TABLE
  2
LTYPE
  5
5
330
0
100
AcDbSymbolTable
 70
     6
  0
LTYPE
  5
14
330
5
100
AcDbSymbolTableRecord
100
AcDbLinetypeTableRecord
  2
ByBlock
 70
     0
  3

 72
    65
 73
     0
 40
0.0
  0
LTYPE
  5
15
330
5
100
AcDbSymbolTableRecord
100
AcDbLinetypeTableRecord
  2
ByLayer
 70
     0
  3

 72
    65
 73
     0
 40
0.0
  0
LTYPE
  5
16
330
5
100
AcDbSymbolTableRecord
100
AcDbLinetypeTableRecord
  2
Continuous
 70
     0
  3
Solid line
 72
    65
 73
     0
 40
0.0
  0
LTYPE
  5
3F
330
5
100
AcDbSymbolTableRecord
100
AcDbLinetypeTableRecord
  2
HIDDEN
 70
     0
  3
Hidden __ __ __ __ __ __ __ __ __ __ __ __ __ __
 72
    65
 73
     2
 40
0.075
 49
0.05
 74
     0
 49
-0.025
 74
     0
  0
LTYPE
  5
40
330
5
100
AcDbSymbolTableRecord
100
AcDbLinetypeTableRecord
  2
PHANTOM
 70
     0
  3
Phantom ______  __  __  ______  __  __  ______
 72
    65
 73
     6
 40
0.5
 49
0.25
 74
     0
 49
-0.05
 74
     0
 49
0.05
 74
     0
 49
-0.05
 74
     0
 49
0.05
 74
     0
 49
-0.05
 74
     0
  0
LTYPE
  5
41
330
5
100
AcDbSymbolTableRecord
100
AcDbLinetypeTableRecord
  2
CENTER
 70
     0
  3
Center ____ _ ____ _ ____ _ ____ _ ____ _ ____
 72
    65
 73
     4
 40
0.4
 49
0.25
 74
     0
 49
-0.05
 74
     0
 49
0.05
 74
     0
 49
-0.05
 74
     0
  0
LTYPE
  5
42
330
5
100
AcDbSymbolTableRecord
100
AcDbLinetypeTableRecord
  2
CENTERX2
 70
     0
  3
Center (2x) ________  __  ________  __  _____
 72
    65
 73
     4
 40
0.8
 49
0.5
 74
     0
 49
-0.1
 74
     0
 49
0.1
 74
     0
 49
-0.1
 74
     0
  0
LTYPE
  5
43
330
5
100
AcDbSymbolTableRecord
100
AcDbLinetypeTableRecord
  2
DOT2
 70
     0
  3
Dot (.5x) ........................................
 72
    65
 73
     2
 40
0.025
 49
0.0
 74
     0
 49
-0.025
 74
     0
  0
ENDTAB
  0
TABLE
  2
LAYER
  5
2
330
0
100
AcDbSymbolTable
 70
     2
  0
LAYER
  5
10
330
2
100
AcDbSymbolTableRecord
100
AcDbLayerTableRecord
  2
0
 70
     0
 62
     7
  6
Continuous
370
    -3
390
F
  0
LAYER
  5
44
330
2
100
AcDbSymbolTableRecord
100
AcDbLayerTableRecord
  2
FORMAT
 70
     0
 62
     7
  6
Continuous
370
    -3
390
F
  0
ENDTAB
  0
TABLE
  2
STYLE
  5
3
330
0
100
AcDbSymbolTable
 70
     3
  0
STYLE
  5
11
330
3
100
AcDbSymbolTableRecord
100
AcDbTextStyleTableRecord
  2
Standard
 70
     0
 40
0.0
 41
1.0
 50
0.0
 71
     0
 42
0.2
  3
txt
  4

  0
STYLE
  5
4B
330
3
100
AcDbSymbolTableRecord
100
AcDbTextStyleTableRecord
  2
SLDTEXTSTYLE0
 70
     0
 40
0.0
 41
0.96
 50
0.0
 71
     0
 42
0.2
  3
TXT
  4

  0
STYLE
  5
70
330
3
100
AcDbSymbolTableRecord
100
AcDbTextStyleTableRecord
  2
SLDTEXTSTYLE1
 70
     0
 40
0.0
 41
0.8833333333
 50
0.0
 71
     0
 42
0.2
  3
TXT
  4

  0
ENDTAB
  0
TABLE
  2
VIEW
  5
6
330
0
100
AcDbSymbolTable
 70
     0
  0
ENDTAB
  0
TABLE
  2
UCS
  5
7
330
0
100
AcDbSymbolTable
 70
     0
  0
ENDTAB
  0
TABLE
  2
APPID
  5
9
330
0
100
AcDbSymbolTable
 70
     1
  0
APPID
  5
12
330
9
100
AcDbSymbolTableRecord
100
AcDbRegAppTableRecord
  2
ACAD
 70
     0
  0
ENDTAB
  0
TABLE
  2
DIMSTYLE
  5
A
330
0
100
AcDbSymbolTable
 70
     1
100
AcDbDimStyleTable
  0
DIMSTYLE
105
27
330
A
100
AcDbSymbolTableRecord
100
AcDbDimStyleTableRecord
  2
Standard
 70
     0
340
11
  0
ENDTAB
  0
TABLE
  2
BLOCK_RECORD
  5
1
330
0
100
AcDbSymbolTable
 70
     3
  0
BLOCK_RECORD
  5
1F
330
1
100
AcDbSymbolTableRecord
100
AcDbBlockTableRecord
  2
*Model_Space
340
22
  0
BLOCK_RECORD
  5
1B
330
1
100
AcDbSymbolTableRecord
100
AcDbBlockTableRecord
  2
*Paper_Space
340
1E
  0
BLOCK_RECORD
  5
23
330
1
100
AcDbSymbolTableRecord
100
AcDbBlockTableRecord
  2
*Paper_Space0
340
26
  0
BLOCK_RECORD
  5
45
330
1
100
AcDbSymbolTableRecord
100
AcDbBlockTableRecord
  2
SW_NOTE_0
340
0
102
{BLKREFS
331
73
102
}
  0
BLOCK_RECORD
  5
48
330
1
100
AcDbSymbolTableRecord
100
AcDbBlockTableRecord
  2
SW_NOTE_0_1
340
0
102
{BLKREFS
331
72
102
}
  0
ENDTAB
  0
ENDSEC
  0
SECTION
  2
BLOCKS
  0
BLOCK
  5
20
330
1F
100
AcDbEntity
  8
0
100
AcDbBlockBegin
  2
*Model_Space
 70
     0
 10
0.0
 20
0.0
 30
0.0
  3
*Model_Space
  1

  0
ENDBLK
  5
21
330
1F
100
AcDbEntity
  8
0
100
AcDbBlockEnd
  0
BLOCK
  5
1C
330
1B
100
AcDbEntity
 67
     1
  8
0
100
AcDbBlockBegin
  2
*Paper_Space
 70
     0
 10
0.0
 20
0.0
 30
0.0
  3
*Paper_Space
  1

  0
ENDBLK
  5
1D
330
1B
100
AcDbEntity
 67
     1
  8
0
100
AcDbBlockEnd
  0
BLOCK
  5
24
330
23
100
AcDbEntity
  8
0
100
AcDbBlockBegin
  2
*Paper_Space0
 70
     0
 10
0.0
 20
0.0
 30
0.0
  3
*Paper_Space0
  1

  0
ENDBLK
  5
25
330
23
100
AcDbEntity
  8
0
100
AcDbBlockEnd
  0
BLOCK
  5
46
330
45
100
AcDbEntity
  8
0
100
AcDbBlockBegin
  2
SW_NOTE_0
 70
     0
 10
0.0
 20
0.0
 30
0.0
  3
SW_NOTE_0
  1

  0
INSERT
  5
72
330
45
100
AcDbEntity
  8
FORMAT
 62
     7
100
AcDbBlockReference
  2
SW_NOTE_0_1
 10
6.1082780987
 20
1.6757404968
 30
0.0
  0
ENDBLK
  5
47
330
45
100
AcDbEntity
  8
0
100
AcDbBlockEnd
  0
BLOCK
  5
49
330
48
100
AcDbEntity
  8
0
100
AcDbBlockBegin
  2
SW_NOTE_0_1
 70
     0
 10
0.0
 20
0.0
 30
0.0
  3
SW_NOTE_0_1
  1

  0
MTEXT
  5
6E
330
48
100
AcDbEntity
  8
FORMAT
 62
     0
100
AcDbMText
 10
0.0
 20
1.7456125643
 30
0.0
 40
1.3541666667
 41
0.0
 71
     1
 72
     1
  1
Titus
  7
SLDTEXTSTYLE0
 73
     1
 44
1.0
  0
MTEXT
  5
6F
330
48
100
AcDbEntity
  8
FORMAT
 62
     0
100
AcDbMText
 10
0.0
 20
-1.8654984665
 30
0.0
 40
1.3541666667
 41
0.0
 71
     1
 72
     1
  1
MDV
  7
SLDTEXTSTYLE0
 73
     1
 44
1.0
  0
MTEXT
  5
71
330
48
100
AcDbEntity
  8
FORMAT
 62
     0
100
AcDbMText
 10
0.0
 20
-5.4766094973
 30
0.0
 40
1.3541666667
 41
0.0
 71
     1
 72
     1
  1
Size 8
  7
SLDTEXTSTYLE1
 73
     1
 44
1.0
  0
ENDBLK
  5
4A
330
48
100
AcDbEntity
  8
0
100
AcDbBlockEnd
  0
ENDSEC
  0
SECTION
  2
ENTITIES
  0
INSERT
  5
73
330
1F
100
AcDbEntity
  8
FORMAT
100
AcDbBlockReference
  2
SW_NOTE_0
 10
13.9225256153
 20
19.8187829689
 30
0.0
  0
ARC
  5
74
330
1F
100
AcDbEntity
  8
0
  6
Continuous
 62
     7
370
    30
100
AcDbCircle
 10
4.2736084039
 20
17.4980544044
 30
0.0
 40
0.1250000000000004
100
AcDbArc
 50
115.0873830763
 51
180.0
  0
LINE
  5
75
330
1F
100
AcDbEntity
  8
0
  6
Continuous
 62
     7
370
    30
100
AcDbLine
 10
4.1486084772
 20
17.4980544039
 30
0.0
 11
0.9926094156
 21
17.4980544039
 31
0.0
  0
ARC
  5
76
330
1F
100
AcDbEntity
  8
0
  6
Continuous
 62
     7
370
    30
100
AcDbCircle
 10
4.2736084039
 20
20.4970544044
 30
0.0
 40
0.1250000000000009
100
AcDbArc
 50
180.0
 51
244.9126169237
  0
LINE
  5
77
330
1F
100
AcDbEntity
  8
0
  6
Continuous
 62
     7
370
    30
100
AcDbLine
 10
0.9926094156
 20
20.4970542958
 30
0.0
 11
4.1486084772
 21
20.4970542958
 31
0.0
  0
LINE
  5
78
330
1F
100
AcDbEntity
  8
0
  6
Continuous
 62
     7
370
    30
100
AcDbLine
 10
3.6776085849
 20
12.9769556753
 30
0.0
 11
3.6776085849
 21
13.3942993608
 31
0.0
  0
LINE
  5
79
330
1F
100
AcDbEntity
  8
0
  6
Continuous
 62
     7
370
    30
100
AcDbLine
 10
3.6776085849
 20
13.7514139021
 30
0.0
 11
3.816857003
 21
13.8523138298
 31
0.0
  0
LINE
  5
7A
330
1F
100
AcDbEntity
  8
0
  6
Continuous
 62
     7
370
    30
100
AcDbLine
 10
3.6776085849
 20
14.1441237388
 30
0.0
 11
3.6776085849
 21
13.7514139021
 31
0.0
  0
LINE
  5
7B
330
1F
100
AcDbEntity
  8
0
  6
Continuous
 62
     7
370
    30
100
AcDbLine
 10
3.657608176
 20
13.7588979223
 30
0.0
 11
3.6776085849
 21
13.7588979223
 31
0.0
  0
LINE
  5
7C
330
1F
100
AcDbEntity
  8
0
  6
Continuous
 62
     7
370
    30
100
AcDbLine
 10
3.6776085849
 20
13.7270481569
 30
0.0
 11
3.6776085849
 21
13.7514139021
 31
0.0
  0
LWPOLYLINE
  5
7D
330
1F
100
AcDbEntity
  8
0
  6
Continuous
 62
     7
370
    30
100
AcDbPolyline
 90
        3
 70
   128
 43
0.0
 10
3.5976081224
 20
10.7384431082
 10
3.5535135918
 20
10.7528385685
 10
3.5505192797
 20
10.7543099115
  0
LINE
  5
7E
330
1F
100
AcDbEntity
  8
0
  6
Continuous
 62
     7
370
    30
100
AcDbLine
 10
3.443039668
 20
13.312654784
 30
0.0
 11
3.5505439195
 21
13.3908797203
 31
0.0
  0
LINE
  5
7F
330
1F
100
AcDbEntity
  8
0
  6
Continuous
 62
     7
370
    30
100
AcDbLine
 10
3.5776088868
 20
12.973289051
 30
0.0
 11
3.5776088868
 21
13.3988028555
 31
0.0
  0
LINE
  5
80
330
1F
100
AcDbEntity
  8
0
  6
Continuous
 62
     7
370
    30
100
AcDbLine
 10
3.4096117875
 20
13.8730824699
 30
0.0
 11
3.5776088868
 21
13.7508410287
 31
0.0
  0
LINE
  5
81
330
1F
100
AcDbEntity
  8
0
  6
Continuous
 62
     7
370
    30
100
AcDbLine
 10
3.5776088868
 20
14.1489510697
 30
0.0
 11
3.5776088868
 21
13.7508410287
 31
0.0
  0
LINE
  5
82
330
1F
100
AcDbEntity
  8
0
  6
Continuous
 62
     7
370
    30
100
AcDbLine
 10
3.5776088868
 20
13.7508410287
 30
0.0
 11
3.5776088868
 21
13.7232958802
 31
0.0
  0
LWPOLYLINE
  5
83
330
1F
100
AcDbEntity
  8
0
  6
Continuous
 62
     7
370
    30
100
AcDbPolyline
 90
        3
 70
   128
 43
0.0
 10
3.5437198916
 20
21.6319493188
 10
3.5535135918
 20
21.6268386311
 10
3.5976081224
 20
21.6124428774
  0
LINE
  5
84
330
1F
100
AcDbEntity
  8
0
  6
Continuous
 62
     7
370
    30
100
AcDbLine
 10
3.5976081224
 20
10.7421161857
 30
0.0
 11
3.5776088868
 21
10.7421161857
 31
0.0
  0
LINE
  5
85
330
1F
100
AcDbEntity
  8
0
  6
Continuous
 62
     7
370
    30
100
AcDbLine
 10
3.6376089403
 20
10.7421161857
 30
0.0
 11
3.657608176
 21
10.7421161857
 31
0.0
  0
ARC
  5
86
330
1F
100
AcDbEntity
  8
0
  6
Continuous
 62
     7
370
    30
100
AcDbCircle
 10
3.6115343493
 20
10.8577548797
 30
0.0
 40
0.0615814356836077
100
AcDbArc
 50
209.8645223775
 51
275.6606639982
  0
ARC
  5
87
330
1F
100
AcDbEntity
  8
0
  6
Continuous
 62
     7
370
    30
100
AcDbCircle
 10
3.6238315827
 20
10.8572457057
 30
0.0
 40
0.0610897507258422
100
AcDbArc
 50
264.1532887483
 51
331.5691431892
  0
LINE
  5
88
330
1F
100
AcDbEntity
  8
0
  6
Continuous
 62
     7
370
    30
100
AcDbLine
 10
3.5976081224
 20
10.7365317702
 30
0.0
 11
3.5976081224
 21
10.7421161857
 31
0.0
  0
LWPOLYLINE
  5
89
330
1F
100
AcDbEntity
  8
0
  6
Continuous
 62
     7
370
    30
100
AcDbPolyline
 90
       17
 70
   128
 43
0.0
 10
3.6176085314
 20
16.2781088401
 10
3.5945340246
 20
16.2813543893
 10
3.5749712639
 20
16.2905969225
 10
3.5619004816
 20
16.3044293361
 10
3.5573104546
 20
16.3207457409
 10
3.5619004816
 20
16.3370621458
 10
3.5749712639
 20
16.3508945593
 10
3.5945340246
 20
16.3601370192
 10
3.6176085314
 20
16.3633825684
 10
3.6406830382
 20
16.3601370192
 10
3.6602457988
 20
16.3508945593
 10
3.6733165812
 20
16.3370621458
 10
3.6779066081
 20
16.3207457409
 10
3.6733165812
 20
16.3044293361
 10
3.6602457988
 20
16.2905969225
 10
3.6406830382
 20
16.2813543893
 10
3.6176085314
 20
16.2781088401
  0
ARC
  5
8A
330
1F
100
AcDbEntity
  8
0
  6
Continuous
 62
     7
370
    30
100
AcDbCircle
 10
3.6176085314
 20
13.7767951577
 30
0.0
 40
0.0400403816824428
100
AcDbArc
 50
236.2726813683
 51
303.7273186317
  0
LINE
  5
8B
330
1F
100
AcDbEntity
  8
0
  6
Continuous
 62
     7
370
    30
100
AcDbLine
 10
3.657608176
 20
13.404990944
 30
0.0
 11
3.657608176
 21
12.9733304105
 31
0.0
  0
LINE
  5
8C
330
1F
100
AcDbEntity
  8
0
  6
Continuous
 62
     7
370
    30
100
AcDbLine
 10
3.5953764682
 20
13.7434939935
 30
0.0
 11
3.5776088868
 21
13.7564230975
 31
0.0
  0
LINE
  5
8D
330
1F
100
AcDbEntity
  8
0
  6
Continuous
 62
     7
370
    30
100
AcDbLine
 10
3.657608176
 20
13.7564230975
 30
0.0
 11
3.6398405946
 21
13.7434939935
 31
0.0
  0
LINE
  5
8E
330
1F
100
AcDbEntity
  8
0
  6
Continuous
 62
     7
370
    30
100
AcDbLine
 10
3.657608176
 20
14.1498524726
 30
0.0
 11
3.657608176
 21
13.7564230975
 31
0.0
  0
LINE
  5
8F
330
1F
100
AcDbEntity
  8
0
  6
Continuous
 62
     7
370
    30
100
AcDbLine
 10
3.657608176
 20
13.7233920924
 30
0.0
 11
3.657608176
 21
13.7564230975
 31
0.0
  0
LINE
  5
90
330
1F
100
AcDbEntity
  8
0
  6
Continuous
 62
     7
370
    30
100
AcDbLine
 10
3.6376089403
 20
21.6161162483
 30
0.0
 11
3.657608176
 21
21.6161162483
 31
0.0
  0
LINE
  5
91
330
1F
100
AcDbEntity
  8
0
  6
Continuous
 62
     7
370
    30
100
AcDbLine
 10
3.5976081224
 20
21.6161162483
 30
0.0
 11
3.5776088868
 21
21.6161162483
 31
0.0
  0
ARC
  5
92
330
1F
100
AcDbEntity
  8
0
  6
Continuous
 62
     7
370
    30
100
AcDbCircle
 10
3.6176482183
 20
21.7392026687
 30
0.0
 40
0.0706290060157254
100
AcDbArc
 50
212.3826414514
 51
327.2044574724
  0
LINE
  5
93
330
1F
100
AcDbEntity
  8
0
  6
Continuous
 62
     7
370
    30
100
AcDbLine
 10
3.5976081224
 20
21.6124428774
 30
0.0
 11
3.5976081224
 21
21.6161162483
 31
0.0
  0
LWPOLYLINE
  5
94
330
1F
100
AcDbEntity
  8
0
  6
Continuous
 62
     7
370
    30
100
AcDbPolyline
 90
       10
 70
   128
 43
0.0
 10
3.6176085314
 20
27.237383071
 10
3.5945340246
 20
27.2341364952
 10
3.5749712639
 20
27.2248942553
 10
3.5619004816
 20
27.2110619884
 10
3.5573104546
 20
27.1947458035
 10
3.5619004816
 20
27.1784296187
 10
3.5749712639
 20
27.1645973518
 10
3.5945340246
 20
27.1553539386
 10
3.6176085314
 20
27.1521085361
 10
3.6181951913
 20
27.1521108827
  0
LWPOLYLINE
  5
95
330
1F
100
AcDbEntity
  8
0
  6
Continuous
 62
     7
370
    30
100
AcDbPolyline
 90
        9
 70
   128
 43
0.0
 10
3.622175092
 20
27.1522317347
 10
3.6406830382
 20
27.1553539386
 10
3.6602457988
 20
27.1645973518
 10
3.6733165812
 20
27.1784296187
 10
3.6779066081
 20
27.1947458035
 10
3.6733165812
 20
27.2110619884
 10
3.6602457988
 20
27.2248942553
 10
3.6406830382
 20
27.2341364952
 10
3.6176085314
 20
27.237383071
  0
LINE
  5
96
330
1F
100
AcDbEntity
  8
0
  6
Continuous
 62
     7
370
    30
100
AcDbLine
 10
4.1486084772
 20
9.6230542332
 30
0.0
 11
4.1486084772
 21
17.4980544039
 31
0.0
  0
SPLINE
  5
97
330
1F
100
AcDbEntity
  8
0
  6
Continuous
 62
     7
370
    30
100
AcDbSpline
210
0.0
220
0.0
230
1.0
 70
     8
 71
     3
 72
    11
 73
     7
 74
     0
 42
0.00000001
 43
0.00000001
 40
0.0
 40
0.0
 40
0.0
 40
0.0
 40
0.1329029410885068
 40
0.4312451128772146
 40
0.7295879073899072
 40
1.0
 40
1.0
 40
1.0
 40
1.0
 10
4.14860847722838
 20
9.623054233221294
 30
0.0
 10
4.148889629211942
 20
9.616815316053923
 30
0.0
 10
4.149801914657951
 20
9.596571200189835
 30
0.0
 10
4.16123396449102
 20
9.563606401993278
 30
0.0
 10
4.185934432740114
 20
9.52990062314712
 30
0.0
 10
4.209434883001811
 20
9.516757605302685
 30
0.0
 10
4.220608072149582
 20
9.510508813355587
 30
0.0
  0
SPLINE
  5
98
330
1F
100
AcDbEntity
  8
0
  6
Continuous
 62
     7
370
    30
100
AcDbSpline
210
0.0
220
0.0
230
1.0
 70
     8
 71
     3
 72
    12
 73
     8
 74
     0
 42
0.00000001
 43
0.00000001
 40
0.0
 40
0.0
 40
0.0
 40
0.0
 40
0.0825564460445222
 40
0.3815761874898605
 40
0.6805957963204621
 40
0.9796148349654461
 40
0.9999999999999999
 40
0.9999999999999999
 40
0.9999999999999999
 40
0.9999999999999999
 10
4.220608072149582
 20
9.51141226958545
 30
0.0
 10
4.216946924595053
 20
9.51268709509351
 30
0.0
 10
4.200025087565616
 20
9.518579343129689
 30
0.0
 10
4.176235662167781
 20
9.541851585797183
 30
0.0
 10
4.154340524565266
 20
9.577939911361945
 30
0.0
 10
4.148727949817665
 20
9.607160736640475
 30
0.0
 10
4.148615644811223
 20
9.62210072619427
 30
0.0
 10
4.14860847722838
 20
9.623054233221294
 30
0.0
  0
SPLINE
  5
99
330
1F
100
AcDbEntity
  8
0
  6
Continuous
 62
     7
370
    30
100
AcDbSpline
210
0.0
220
0.0
230
1.0
 70
    11
 71
     3
 72
    26
 73
    22
 74
     0
 42
0.00000001
 43
0.00000001
 40
0.0
 40
0.0
 40
0.0
 40
0.0
 40
0.0541189809851944
 40
0.1082347646992768
 40
0.1623940349883453
 40
0.2162395808949522
 40
0.2695388892065267
 40
0.3225072442652439
 40
0.3756481765019724
 40
0.4293070331399417
 40
0.4833972514013931
 40
0.5375458714621858
 40
0.5914604718750881
 40
0.6451187999608882
 40
0.6986498372566546
 40
0.7521572535916622
 40
0.8056692888399838
 40
0.8591813311082594
 40
0.9126879313733294
 40
0.9662194686975943
 40
1.0
 40
1.0
 40
1.0
 40
1.0
 10
3.836608668143465
 20
13.93555441485119
 30
0.0
 10
3.834159367705363
 20
13.96031212934827
 30
0.0
 10
3.829260911530278
 20
14.00982609569245
 30
0.0
 10
3.791158287907398
 20
14.07558772101105
 30
0.0
 10
3.735086529904112
 20
14.1254361057058
 30
0.0
 10
3.665303955499035
 20
14.15358989071009
 30
0.0
 10
3.590707703670005
 20
14.15705595069674
 30
0.0
 10
3.519493879803475
 20
14.13592072377331
 30
0.0
 10
3.459170122223776
 20
14.09266256758116
 30
0.0
 10
3.416182785698997
 20
14.0316909940453
 30
0.0
 10
3.395655615788671
 20
13.95947299110635
 30
0.0
 10
3.400331560530772
 20
13.88428611766287
 30
0.0
 10
3.429749004216986
 20
13.81499076764038
 30
0.0
 10
3.480373798511227
 20
13.75953381198759
 30
0.0
 10
3.546374287540744
 20
13.72403906065917
 30
0.0
 10
3.620353441508017
 20
13.71238494197368
 30
0.0
 10
3.693988532046887
 20
13.72584905640909
 30
0.0
 10
3.759109875169342
 20
13.76291696254637
 30
0.0
 10
3.807919923034329
 20
13.81934155829357
 30
0.0
 10
3.833134389763472
 20
13.88029309030631
 30
0.0
 10
3.835639467964122
 20
13.92013846949455
 30
0.0
 10
3.836608668143465
 20
13.9355544148512
 30
0.0
  0
LINE
  5
9A
330
1F
100
AcDbEntity
  8
0
  6
Continuous
 62
     7
370
    30
100
AcDbLine
 10
0.9926094156
 20
9.6230542332
 30
0.0
 11
0.9926094156
 21
17.4980544039
 31
0.0
  0
LINE
  5
9B
330
1F
100
AcDbEntity
  8
0
  6
Continuous
 62
     7
370
    30
100
AcDbLine
 10
4.1486084772
 20
9.6230542332
 30
0.0
 11
0.9926094156
 21
9.6230542332
 31
0.0
  0
SPLINE
  5
9C
330
1F
100
AcDbEntity
  8
0
  6
Continuous
 62
     7
370
    30
100
AcDbSpline
210
0.0
220
0.0
230
1.0
 70
    11
 71
     3
 72
    26
 73
    22
 74
     0
 42
0.00000001
 43
0.00000001
 40
0.0
 40
0.0
 40
0.0
 40
0.0
 40
0.0537542772040961
 40
0.107515289920991
 40
0.1611183143030067
 40
0.2146348107709218
 40
0.2681422496331519
 40
0.3216548232653433
 40
0.3751651616180092
 40
0.4286727762456533
 40
0.4822287129103837
 40
0.5359560586947287
 40
0.5899575857226438
 40
0.6441306148553271
 40
0.6981197894563634
 40
0.7515959540635202
 40
0.8046217195458041
 40
0.8576516828695978
 40
0.9111288269398096
 40
0.9651121788572599
 40
1.0
 40
1.0
 40
1.0
 40
1.0
 10
3.836608668143465
 20
13.18555433224948
 30
0.0
 10
3.83419156950095
 20
13.21017356714365
 30
0.0
 10
3.829357069348871
 20
13.25941512176877
 30
0.0
 10
3.791557433880102
 20
13.32504971008038
 30
0.0
 10
3.735883623284642
 20
13.3748816618756
 30
0.0
 10
3.666474927653158
 20
13.4033210466512
 30
0.0
 10
3.591723188660232
 20
13.40723447386602
 30
0.0
 10
3.519858071212596
 20
13.38619572938128
 30
0.0
 10
3.459022763441557
 20
13.34259081319337
 30
0.0
 10
3.416048047493574
 20
13.28136601704602
 30
0.0
 10
3.395714018412453
 20
13.20941211735556
 30
0.0
 10
3.400285048970193
 20
13.13470353296245
 30
0.0
 10
3.429400348800165
 20
13.0655206966106
 30
0.0
 10
3.47998270867943
 20
13.00977820419338
 30
0.0
 10
3.546206822164795
 20
12.9740661368962
 30
0.0
 10
3.620169116528215
 20
12.9624193140786
 30
0.0
 10
3.693339080121175
 20
12.97570411856545
 30
0.0
 10
3.758049869227921
 20
13.01214506313923
 30
0.0
 10
3.807037467644763
 20
13.06792524275272
 30
0.0
 10
3.832944234186701
 20
13.12910883525858
 30
0.0
 10
3.835575659453499
 20
13.16964227336427
 30
0.0
 10
3.836608668143465
 20
13.18555433224948
 30
0.0
  0
SPLINE
  5
9D
330
1F
100
AcDbEntity
  8
0
  6
Continuous
 62
     7
370
    30
100
AcDbSpline
210
0.0
220
0.0
230
1.0
 70
    11
 71
     3
 72
    26
 73
    22
 74
     0
 42
0.00000001
 43
0.00000001
 40
0.0
 40
0.0
 40
0.0
 40
0.0
 40
0.0536772005480286
 40
0.1073565604001171
 40
0.161043496530731
 40
0.2147370746399936
 40
0.2684204417326017
 40
0.3220929066074147
 40
0.375771368215741
 40
0.4294620023434179
 40
0.4831538755345737
 40
0.5368322944028018
 40
0.5905064124532696
 40
0.6441895347745537
 40
0.6978832887655628
 40
0.751570771223267
 40
0.8052454236363594
 40
0.8589194359092958
 40
0.9126075177788981
 40
0.966301809756177
 40
1.0
 40
1.0
 40
1.0
 40
1.0
 10
3.617608531385066
 20
16.41028932650232
 30
0.0
 10
3.628148605693721
 20
16.40957447062195
 30
0.0
 10
3.649229178312754
 20
16.40814473010429
 30
0.0
 10
3.677286633846261
 20
16.39697109435998
 30
0.0
 10
3.698619043975942
 20
16.38042296007827
 30
0.0
 10
3.710819779122588
 20
16.35961097228863
 30
0.0
 10
3.712511994430599
 20
16.33699671232791
 30
0.0
 10
3.703507867189608
 20
16.3150739798039
 30
0.0
 10
3.684822911526539
 20
16.29637298583126
 30
0.0
 10
3.658559755627944
 20
16.28308240741511
 30
0.0
 10
3.627677365378544
 20
16.27679195345014
 30
0.0
 10
3.595663014344056
 20
16.27825806405022
 30
0.0
 10
3.566124914593131
 20
16.28730077406464
 30
0.0
 10
3.542387693127856
 20
16.30283680226324
 30
0.0
 10
3.527126713690697
 20
16.32302558633439
 30
0.0
 10
3.522069278680949
 20
16.34551579764551
 30
0.0
 10
3.527778969609807
 20
16.36772972563597
 30
0.0
 10
3.543613889370867
 20
16.38723567395471
 30
0.0
 10
3.567778473148864
 20
16.40177864753934
 30
0.0
 10
3.593910728761896
 20
16.40926053246641
 30
0.0
 10
3.611013695920867
 20
16.41000302454001
 30
0.0
 10
3.617608531385066
 20
16.41028932650232
 30
0.0
  0
SPLINE
  5
9E
330
1F
100
AcDbEntity
  8
0
  6
Continuous
 62
     7
370
    30
100
AcDbSpline
210
0.0
220
0.0
230
1.0
 70
    11
 71
     3
 72
    26
 73
    22
 74
     0
 42
0.00000001
 43
0.00000001
 40
0.0
 40
0.0
 40
0.0
 40
0.0
 40
0.0536771674089334
 40
0.1073565530477501
 40
0.1610432029280676
 40
0.2147367616209319
 40
0.2684201107609629
 40
0.3220928949686834
 40
0.3757713366605402
 40
0.4294620543903939
 40
0.4831537691794939
 40
0.5368321594663027
 40
0.5905062243525387
 40
0.6441893307877988
 40
0.6978831437411273
 40
0.7515703472244074
 40
0.805245331237733
 40
0.8589194811607501
 40
0.9126076042301424
 40
0.9663018782511907
 40
1.0
 40
1.0
 40
1.0
 40
1.0
 10
3.617608531385066
 20
10.84340184232824
 30
0.0
 10
3.628148611631011
 20
10.84265113437987
 30
0.0
 10
3.64922920769582
 20
10.84114968745981
 30
0.0
 10
3.677286538374228
 20
10.82947672885922
 30
0.0
 10
3.698619107186726
 20
10.81237500199706
 30
0.0
 10
3.710819775013272
 20
10.79116477630916
 30
0.0
 10
3.712511971869748
 20
10.76849169835056
 30
0.0
 10
3.703507926904313
 20
10.74687215232768
 30
0.0
 10
3.684822868506249
 20
10.72870485840842
 30
0.0
 10
3.658559845715977
 20
10.71594398682944
 30
0.0
 10
3.627677306822689
 20
10.70994836149068
 30
0.0
 10
3.595663032358805
 20
10.711342923343
 30
0.0
 10
3.566124901327548
 20
10.71998109519569
 30
0.0
 10
3.542387678480539
 20
10.73495603473785
 30
0.0
 10
3.52712674864085
 20
10.75467322500061
 30
0.0
 10
3.522069276474607
 20
10.7769877397479
 30
0.0
 10
3.527778955913579
 20
10.7993990426159
 30
0.0
 10
3.543613867705984
 20
10.81939012701656
 30
0.0
 10
3.567778461694024
 20
10.83448739294928
 30
0.0
 10
3.593910703730611
 20
10.84232308946078
 30
0.0
 10
3.611013693920945
 20
10.84310163760363
 30
0.0
 10
3.617608531385066
 20
10.84340184232824
 30
0.0
  0
SPLINE
  5
9F
330
1F
100
AcDbEntity
  8
0
  6
Continuous
 62
     7
370
    30
100
AcDbSpline
210
0.0
220
0.0
230
1.0
 70
     8
 71
     3
 72
    12
 73
     8
 74
     0
 42
0.00000001
 43
0.00000001
 40
0.0
 40
0.0
 40
0.0
 40
0.0
 40
0.2448425582014881
 40
0.4896948191755071
 40
0.7345818161086393
 40
0.9794992538998728
 40
1.0
 40
1.0
 40
1.0
 40
1.0
 10
3.617608531385066
 20
16.38624081764608
 30
0.0
 10
3.6281329886968
 20
16.38552477120406
 30
0.0
 10
3.649182320389971
 20
16.38409264994408
 30
0.0
 10
3.677474050363195
 20
16.37294171922607
 30
0.0
 10
3.697916133857118
 20
16.3563181714215
 30
0.0
 10
3.708701875193312
 20
16.34206572134824
 30
0.0
 10
3.709172112369299
 20
16.3340293029191
 30
0.0
 10
3.709208433215184
 20
16.33340857463532
 30
0.0
  0
SPLINE
  5
A0
330
1F
100
AcDbEntity
  8
0
  6
Continuous
 62
     7
370
    30
100
AcDbSpline
210
0.0
220
0.0
230
1.0
 70
     8
 71
     3
 72
    12
 73
     8
 74
     0
 42
0.00000001
 43
0.00000001
 40
0.0
 40
0.0
 40
0.0
 40
0.0
 40
0.1179500679674322
 40
0.3610434964837068
 40
0.6041904752184091
 40
0.8473722453293685
 40
1.0
 40
1.0
 40
1.0
 40
1.0
 10
3.526747821015745
 20
16.33265508333972
 30
0.0
 10
3.527418553728551
 20
16.3362321726841
 30
0.0
 10
3.529471657113836
 20
16.34718159277672
 30
0.0
 10
3.543964905475886
 20
16.36313958033188
 30
0.0
 10
3.567682267159158
 20
16.37774547588566
 30
0.0
 10
3.593923685303685
 20
16.38521014817664
 30
0.0
 10
3.611017139784679
 20
16.38595398673064
 30
0.0
 10
3.617608531385066
 20
16.38624081764608
 30
0.0
  0
SPLINE
  5
A1
330
1F
100
AcDbEntity
  8
0
  6
Continuous
 62
     7
370
    30
100
AcDbSpline
210
0.0
220
0.0
230
1.0
 70
     8
 71
     3
 72
    16
 73
    12
 74
     0
 42
0.00000001
 43
0.00000001
 40
0.0
 40
0.0
 40
0.0
 40
0.0
 40
0.0968554088223204
 40
0.2185272814827129
 40
0.3402269574291247
 40
0.4619296780577808
 40
0.5836016472015146
 40
0.7052587598858348
 40
0.8269409950400174
 40
0.9486481697834575
 40
1.0
 40
1.0
 40
1.0
 40
1.0
 10
3.708928009787992
 20
10.78838194458947
 30
0.0
 10
3.707079615122765
 20
10.78260408990463
 30
0.0
 10
3.702909226848023
 20
10.76956796840731
 30
0.0
 10
3.684625590713145
 20
10.752783228144
 30
0.0
 10
3.65861446249794
 20
10.73998362014199
 30
0.0
 10
3.627655766402389
 20
10.73399797577169
 30
0.0
 10
3.595695288941036
 20
10.73539499438958
 30
0.0
 10
3.56602006876428
 20
10.74401299219191
 30
0.0
 10
3.542779919160816
 20
10.75905344110183
 30
0.0
 10
3.5289656786751
 20
10.77476460887834
 30
0.0
 10
3.527243569599741
 20
10.78527177719138
 30
0.0
 10
3.526732567858618
 20
10.78838957116803
 30
0.0
  0
LINE
  5
A2
330
1F
100
AcDbEntity
  8
0
  6
Continuous
 62
     7
370
    30
100
AcDbLine
 10
4.1486084772
 20
20.4970542958
 30
0.0
 11
4.1486084772
 21
28.3720548698
 31
0.0
  0
SPLINE
  5
A3
330
1F
100
AcDbEntity
  8
0
  6
Continuous
 62
     7
370
    30
100
AcDbSpline
210
0.0
220
0.0
230
1.0
 70
     8
 71
     3
 72
    11
 73
     7
 74
     0
 42
0.00000001
 43
0.00000001
 40
0.0
 40
0.0
 40
0.0
 40
0.0
 40
0.1328991115772928
 40
0.4312459823023649
 40
0.7295895152151244
 40
1.0
 40
1.0
 40
1.0
 40
1.0
 10
4.14860847722838
 20
28.37205486983269
 30
0.0
 10
4.148889648218161
 20
28.37829358868797
 30
0.0
 10
4.149802023464625
 20
28.39853768519942
 30
0.0
 10
4.161233821411862
 20
28.43150252506593
 30
0.0
 10
4.185934291593886
 20
28.46520852129847
 30
0.0
 10
4.209434870969537
 20
28.47835113218099
 30
0.0
 10
4.220608072149582
 20
28.48459970303851
 30
0.0
  0
SPLINE
  5
A4
330
1F
100
AcDbEntity
  8
0
  6
Continuous
 62
     7
370
    30
100
AcDbSpline
210
0.0
220
0.0
230
1.0
 70
     8
 71
     3
 72
    12
 73
     8
 74
     0
 42
0.00000001
 43
0.00000001
 40
0.0
 40
0.0
 40
0.0
 40
0.0
 40
0.0825567910746488
 40
0.3815777822203338
 40
0.6805986407507278
 40
0.9796189290931214
 40
1.0
 40
1.0
 40
1.0
 40
1.0
 10
4.220608072149582
 20
28.48369624680864
 30
0.0
 10
4.216946924582929
 20
28.48242142130251
 30
0.0
 10
4.200025087497465
 20
28.47652917327524
 30
0.0
 10
4.176235663385539
 20
28.45325693040324
 30
0.0
 10
4.154340520171353
 20
28.41716860573096
 30
0.0
 10
4.148727997659535
 20
28.38794797565144
 30
0.0
 10
4.148615646387723
 20
28.37300818138701
 30
0.0
 10
4.14860847722838
 20
28.37205486983269
 30
0.0
  0
LINE
  5
A5
330
1F
100
AcDbEntity
  8
0
  6
Continuous
 62
     7
370
    30
100
AcDbLine
 10
0.9926094156
 20
28.3720548698
 30
0.0
 11
4.1486084772
 21
28.3720548698
 31
0.0
  0
SPLINE
  5
A6
330
1F
100
AcDbEntity
  8
0
  6
Continuous
 62
     7
370
    30
100
AcDbSpline
210
0.0
220
0.0
230
1.0
 70
    11
 71
     3
 72
    26
 73
    22
 74
     0
 42
0.00000001
 43
0.00000001
 40
0.0
 40
0.0
 40
0.0
 40
0.0
 40
0.0536771462075929
 40
0.1073562433619589
 40
0.1610431686536017
 40
0.2147364927468026
 40
0.2684203782313835
 40
0.3220933449051081
 40
0.3757717228151683
 40
0.4294617768183491
 40
0.4831539820739726
 40
0.5368324586226564
 40
0.5905064601932887
 40
0.6441893296364154
 40
0.6978835447229355
 40
0.7515711916490183
 40
0.8052453999271242
 40
0.8589198574702658
 40
0.9126077001138209
 40
0.9663018529554799
 40
0.9999999999999999
 40
0.9999999999999999
 40
0.9999999999999999
 40
0.9999999999999999
 10
3.617608531385066
 20
27.28428887579828
 30
0.0
 10
3.628148593359978
 20
27.28357406772702
 30
0.0
 10
3.649229100398351
 20
27.28214442560411
 30
0.0
 10
3.677286719155029
 20
27.2709714217207
 30
0.0
 10
3.698618982506154
 20
27.25442309863735
 30
0.0
 10
3.710819854350754
 20
27.23361141814419
 30
0.0
 10
3.712511969581976
 20
27.21099667092281
 30
0.0
 10
3.703507934849537
 20
27.18907362277354
 30
0.0
 10
3.684823076624373
 20
27.17037232791789
 30
0.0
 10
3.658559431549459
 20
27.15708347009636
 30
0.0
 10
3.627677497296778
 20
27.15079060017887
 30
0.0
 10
3.595663045409897
 20
27.15225882179034
 30
0.0
 10
3.566124970970493
 20
27.16130074181175
 30
0.0
 10
3.542387521134579
 20
27.17683653531968
 30
0.0
 10
3.527126788391201
 20
27.19702580608304
 30
0.0
 10
3.522069234306702
 20
27.21951617066041
 30
0.0
 10
3.527779104592086
 20
27.24172963962232
 30
0.0
 10
3.54361372136031
 20
27.26123622043849
 30
0.0
 10
3.567778517653946
 20
27.27577873361521
 30
0.0
 10
3.593910744353785
 20
27.28326046883302
 30
0.0
 10
3.611013696431102
 20
27.28400268138728
 30
0.0
 10
3.617608531385066
 20
27.28428887579828
 30
0.0
  0
SPLINE
  5
A7
330
1F
100
AcDbEntity
  8
0
  6
Continuous
 62
     7
370
    30
100
AcDbSpline
210
0.0
220
0.0
230
1.0
 70
    11
 71
     3
 72
    26
 73
    22
 74
     0
 42
0.00000001
 43
0.00000001
 40
0.0
 40
0.0
 40
0.0
 40
0.0
 40
0.0536792112149601
 40
0.1073567602810792
 40
0.1610437198873097
 40
0.2147381635685897
 40
0.2684216250330844
 40
0.3220939425000003
 40
0.3757726461645498
 40
0.4294631485069787
 40
0.4831550941589273
 40
0.5368335364990476
 40
0.5905058704731007
 40
0.6441890162683337
 40
0.6978829510492899
 40
0.7515705972181146
 40
0.8052451864413949
 40
0.8589193742191811
 40
0.9126074795649011
 40
0.9663017950210131
 40
1.0
 40
1.0
 40
1.0
 40
1.0
 10
3.617608531385066
 20
21.58481940988924
 30
0.0
 10
3.607068032826078
 20
21.58553422649302
 30
0.0
 10
3.585987362089154
 20
21.58696383756667
 30
0.0
 10
3.557930115498968
 20
21.59813777806512
 30
0.0
 10
3.536598380464359
 20
21.61468588738943
 30
0.0
 10
3.524395352127002
 20
21.63549751621267
 30
0.0
 10
3.522705564073853
 20
21.65811225159405
 30
0.0
 10
3.531709134972968
 20
21.68003468500099
 30
0.0
 10
3.550394075375165
 20
21.69873607697788
 30
0.0
 10
3.57665738457899
 20
21.71202621703786
 30
0.0
 10
3.607539646816396
 20
21.71831695836302
 30
0.0
 10
3.639553786158222
 20
21.71685098175962
 30
0.0
 10
3.669091151570319
 20
21.70780774104023
 30
0.0
 10
3.692828362935896
 20
21.6922720705954
 30
0.0
 10
3.708088730655833
 20
21.67208297112244
 30
0.0
 10
3.713148224410008
 20
21.6495931057638
 30
0.0
 10
3.707437944030597
 20
21.6273791513907
 30
0.0
 10
3.691603240891279
 20
21.6078730461349
 30
0.0
 10
3.667438577518897
 20
21.59333009698627
 30
0.0
 10
3.64130633576234
 20
21.5858482027462
 30
0.0
 10
3.624203367337413
 20
21.58510571152346
 30
0.0
 10
3.617608531385066
 20
21.58481940988924
 30
0.0
  0
LINE
  5
A8
330
1F
100
AcDbEntity
  8
0
  6
Continuous
 62
     7
370
    30
100
AcDbLine
 10
0.9926094156
 20
20.4970542958
 30
0.0
 11
0.9926094156
 21
28.3720548698
 31
0.0
  0
SPLINE
  5
A9
330
1F
100
AcDbEntity
  8
0
  6
Continuous
 62
     7
370
    30
100
AcDbSpline
210
0.0
220
0.0
230
1.0
 70
     8
 71
     3
 72
    12
 73
     8
 74
     0
 42
0.00000001
 43
0.00000001
 40
0.0
 40
0.0
 40
0.0
 40
0.0
 40
0.240464836169479
 40
0.4809406613129892
 40
0.7214496613175212
 40
0.9619892841780581
 40
1.0
 40
1.0
 40
1.0
 40
1.0
 10
3.617608531385066
 20
27.26024051360701
 30
0.0
 10
3.628134881470332
 20
27.25952498427063
 30
0.0
 10
3.6491880626833
 20
27.25809389289896
 30
0.0
 10
3.677451465757479
 20
27.24693866718253
 30
0.0
 10
3.698000602314119
 20
27.23032872178061
 30
0.0
 10
3.708883536253369
 20
27.21553172037435
 30
0.0
 10
3.709277827219576
 20
27.20693208156685
 30
0.0
 10
3.709331631791983
 20
27.20575858298692
 30
0.0
  0
SPLINE
  5
AA
330
1F
100
AcDbEntity
  8
0
  6
Continuous
 62
     7
370
    30
100
AcDbSpline
210
0.0
220
0.0
230
1.0
 70
     8
 71
     3
 72
    12
 73
     8
 74
     0
 42
0.00000001
 43
0.00000001
 40
0.0
 40
0.0
 40
0.0
 40
0.0
 40
0.1272773221770616
 40
0.367800749707412
 40
0.608375370560776
 40
0.8489859183261526
 40
1.0
 40
1.0
 40
1.0
 40
1.0
 10
3.526501423862147
 20
27.20569639703863
 30
0.0
 10
3.527218584827965
 20
27.20960088496071
 30
0.0
 10
3.529291006971817
 20
27.22088391292201
 30
0.0
 10
3.543939443672433
 20
27.23714550382599
 30
0.0
 10
3.567689247021004
 20
27.25174392462565
 30
0.0
 10
3.593922692299296
 20
27.25921025954309
 30
0.0
 10
3.611016861522669
 20
27.25995379821394
 30
0.0
 10
3.617608531385066
 20
27.26024051360701
 30
0.0
  0
SPLINE
  5
AB
330
1F
100
AcDbEntity
  8
0
  6
Continuous
 62
     7
370
    30
100
AcDbSpline
210
0.0
220
0.0
230
1.0
 70
     8
 71
     3
 72
    12
 73
     8
 74
     0
 42
0.00000001
 43
0.00000001
 40
0.0
 40
0.0
 40
0.0
 40
0.0
 40
0.2448506116522837
 40
0.4896941355211647
 40
0.7345801875445455
 40
0.9794994122606088
 40
1.0
 40
1.0
 40
1.0
 40
1.0
 10
3.617608531385066
 20
21.60886806541045
 30
0.0
 10
3.607083686420762
 20
21.60958402476658
 30
0.0
 10
3.586034301158828
 20
21.61101592275368
 30
0.0
 10
3.557742226686424
 20
21.62216745963338
 30
0.0
 10
3.537303275043898
 20
21.63879111700628
 30
0.0
 10
3.526509479425423
 20
21.65304268567084
 30
0.0
 10
3.526044540657151
 20
21.66107955399204
 30
0.0
 10
3.526008629554949
 20
21.6617003084212
 30
0.0
  0
SPLINE
  5
AC
330
1F
100
AcDbEntity
  8
0
  6
Continuous
 62
     7
370
    30
100
AcDbSpline
210
0.0
220
0.0
230
1.0
 70
     8
 71
     3
 72
    12
 73
     8
 74
     0
 42
0.00000001
 43
0.00000001
 40
0.0
 40
0.0
 40
0.0
 40
0.0
 40
0.1179522726301932
 40
0.3610424467850934
 40
0.6041966988330946
 40
0.8473715623130534
 40
1.0
 40
1.0
 40
1.0
 40
1.0
 10
3.708469241754386
 20
21.66245357971935
 30
0.0
 10
3.70779801981118
 20
21.65887651658682
 30
0.0
 10
3.705743463274835
 20
21.64792741321751
 30
0.0
 10
3.691252684826009
 20
21.63196840979526
 30
0.0
 10
3.667533680814001
 20
21.6173640768733
 30
0.0
 10
3.641293136932997
 20
21.60989836840066
 30
0.0
 10
3.624199952132461
 20
21.60915479851614
 30
0.0
 10
3.617608531385066
 20
21.60886806541045
 30
0.0
  0
ARC
  5
AD
330
1F
100
AcDbEntity
  8
0
  6
Continuous
 62
     7
370
    30
100
AcDbCircle
 10
45.5556084039
 20
18.9975544044
 30
0.0
 40
0.0469999999999989
100
AcDbArc
 50
180.0
 51
283.0269950592
  0
ARC
  5
AE
330
1F
100
AcDbEntity
  8
0
  6
Continuous
 62
     7
370
    30
100
AcDbCircle
 10
45.5556084039
 20
18.9975544044
 30
0.0
 40
0.0470000000000029
100
AcDbArc
 50
31.7332750472
 51
180.0
  0
LWPOLYLINE
  5
AF
330
1F
100
AcDbEntity
  8
0
  6
Continuous
 62
     7
370
    30
100
AcDbPolyline
 90
        3
 70
   128
 43
0.0
 10
45.9021608033
 20
7.5107278083
 10
45.9103998548
 20
7.517764207
 10
45.9174843596
 20
7.5260713111
  0
CIRCLE
  5
B0
330
1F
100
AcDbEntity
  8
0
  6
Continuous
 62
     7
370
    30
100
AcDbCircle
 10
4.6806084039
 20
18.9975544044
 30
0.0
 40
0.0470000000000006
  0
CIRCLE
  5
B1
330
1F
100
AcDbEntity
  8
0
  6
Continuous
 62
     7
370
    30
100
AcDbCircle
 10
4.6806084039
 20
8.9975544044
 30
0.0
 40
0.0470000000000006
  0
CIRCLE
  5
B2
330
1F
100
AcDbEntity
  8
0
  6
Continuous
 62
     7
370
    30
100
AcDbCircle
 10
4.6806084039
 20
28.9975544044
 30
0.0
 40
0.0470000000000006
  0
LINE
  5
B3
330
1F
100
AcDbEntity
  8
0
  6
Continuous
 62
     7
370
    30
100
AcDbLine
 10
4.2606088901
 20
7.4603929765
 30
0.0
 11
4.2206080721
 21
7.4603929765
 31
0.0
  0
LINE
  5
B4
330
1F
100
AcDbEntity
  8
0
  6
Continuous
 62
     7
370
    30
100
AcDbLine
 10
4.2606088901
 20
7.5253931322
 30
0.0
 11
4.2606088901
 21
7.4603929765
 31
0.0
  0
LINE
  5
B5
330
1F
100
AcDbEntity
  8
0
  6
Continuous
 62
     7
370
    30
100
AcDbLine
 10
4.2206080721
 20
7.5253931322
 30
0.0
 11
4.2206080721
 21
7.4603929765
 31
0.0
  0
LINE
  5
B6
330
1F
100
AcDbEntity
  8
0
  6
Continuous
 62
     7
370
    30
100
AcDbLine
 10
4.2884470751
 20
7.3925545601
 30
0.0
 11
5.2320930274
 21
7.3925545601
 31
0.0
  0
LINE
  5
B7
330
1F
100
AcDbEntity
  8
0
  6
Continuous
 62
     7
370
    30
100
AcDbLine
 10
23.2721237674
 20
7.3925545601
 30
0.0
 11
45.9027685829
 21
7.3925545601
 31
0.0
  0
LINE
  5
B8
330
1F
100
AcDbEntity
  8
0
  6
Continuous
 62
     7
370
    30
100
AcDbLine
 10
4.2884470751
 20
7.4325542047
 30
0.0
 11
4.2884470751
 21
7.3925545601
 31
0.0
  0
LINE
  5
B9
330
1F
100
AcDbEntity
  8
0
  6
Continuous
 62
     7
370
    30
100
AcDbLine
 10
4.2884470751
 20
7.4325542047
 30
0.0
 11
5.2320930274
 21
7.4325542047
 31
0.0
  0
LINE
  5
BA
330
1F
100
AcDbEntity
  8
0
  6
Continuous
 62
     7
370
    30
100
AcDbLine
 10
23.2721237674
 20
7.4325542047
 30
0.0
 11
45.9027685829
 21
7.4325542047
 31
0.0
  0
LINE
  5
BB
330
1F
100
AcDbEntity
  8
0
  6
Continuous
 62
     7
370
    30
100
AcDbLine
 10
45.9027685829
 20
7.4325542047
 30
0.0
 11
45.9027685829
 21
7.3925545601
 31
0.0
  0
LINE
  5
BC
330
1F
100
AcDbEntity
  8
0
  6
Continuous
 62
     7
370
    30
100
AcDbLine
 10
45.9306091147
 20
7.4603929765
 30
0.0
 11
45.9706075859
 21
7.4603929765
 31
0.0
  0
LINE
  5
BD
330
1F
100
AcDbEntity
  8
0
  6
Continuous
 62
     7
370
    30
100
AcDbLine
 10
45.9706075859
 20
7.4603929765
 30
0.0
 11
45.9706075859
 21
7.5253931322
 31
0.0
  0
LINE
  5
BE
330
1F
100
AcDbEntity
  8
0
  6
Continuous
 62
     7
370
    30
100
AcDbLine
 10
45.9306091147
 20
7.4603929765
 30
0.0
 11
45.9306091147
 21
7.5253931322
 31
0.0
  0
SPLINE
  5
BF
330
1F
100
AcDbEntity
  8
0
  6
Continuous
 62
     7
370
    30
100
AcDbSpline
210
0.0
220
0.0
230
1.0
 70
     8
 71
     3
 72
    11
 73
     7
 74
     0
 42
0.00000001
 43
0.00000001
 40
0.0
 40
0.0
 40
0.0
 40
0.0
 40
0.2623526158697611
 40
0.5246889869487876
 40
0.7870326470683108
 40
1.0
 40
1.0
 40
1.0
 40
1.0
 10
4.26060889005672
 20
7.460392976468678
 30
0.0
 10
4.261058942139482
 20
7.460573076062141
 30
0.0
 10
4.261959018437932
 20
7.460933264097356
 30
0.0
 10
4.268907523111351
 20
7.461473635439615
 30
0.0
 10
4.278160191382177
 20
7.46197995044388
 30
0.0
 10
4.285264103663913
 20
7.462306448821068
 30
0.0
 10
4.288447075134297
 20
7.462452739340788
 30
0.0
  0
SPLINE
  5
C0
330
1F
100
AcDbEntity
  8
0
  6
Continuous
 62
     7
370
    30
100
AcDbSpline
210
0.0
220
0.0
230
1.0
 70
     8
 71
     3
 72
    11
 73
     7
 74
     0
 42
0.00000001
 43
0.00000001
 40
0.0
 40
0.0
 40
0.0
 40
0.0
 40
0.2129860445152303
 40
0.4752992099120291
 40
0.7376560617931264
 40
1.0
 40
1.0
 40
1.0
 40
1.0
 10
45.90276858294115
 20
7.462452739340788
 30
0.0
 10
45.90595203598667
 20
7.46230645812831
 30
0.0
 10
45.9130562231214
 20
7.461980017281565
 30
0.0
 10
45.92230795793849
 20
7.46147355714213
 30
0.0
 10
45.92925946068991
 20
7.460933309954532
 30
0.0
 10
45.93015923738378
 20
7.460573084675404
 30
0.0
 10
45.93060911465829
 20
7.460392976468678
 30
0.0
  0
SPLINE
  5
C1
330
1F
100
AcDbEntity
  8
0
  6
Continuous
 62
     7
370
    30
100
AcDbSpline
210
0.0
220
0.0
230
1.0
 70
     8
 71
     3
 72
    11
 73
     7
 74
     0
 42
0.00000001
 43
0.00000001
 40
0.0
 40
0.0
 40
0.0
 40
0.0
 40
0.2805563886127654
 40
0.5611004630037795
 40
0.8416445373947935
 40
1.0
 40
1.0
 40
1.0
 40
1.0
 10
45.90276858294115
 20
7.432554204731211
 30
0.0
 10
45.90258868166135
 20
7.433003120567562
 30
0.0
 10
45.90222888699797
 20
7.433900932536384
 30
0.0
 10
45.90168905940459
 20
7.440870069361155
 30
0.0
 10
45.90122796665693
 20
7.449243708246676
 30
0.0
 10
45.90094605320451
 20
7.455350714364444
 30
0.0
 10
45.90084433850352
 20
7.457554129263283
 30
0.0
  0
SPLINE
  5
C2
330
1F
100
AcDbEntity
  8
0
  6
Continuous
 62
     7
370
    30
100
AcDbSpline
210
0.0
220
0.0
230
1.0
 70
     8
 71
     3
 72
    11
 73
     7
 74
     0
 42
0.00000001
 43
0.00000001
 40
0.0
 40
0.0
 40
0.0
 40
0.0
 40
0.1583550523805453
 40
0.438899695307262
 40
0.7194430429402852
 40
0.9999999999999999
 40
0.9999999999999999
 40
0.9999999999999999
 40
0.9999999999999999
 10
4.290373666211486
 20
7.457554129263283
 30
0.0
 10
4.290272009435055
 20
7.455350712406585
 30
0.0
 10
4.289990255695403
 20
7.449243682839161
 30
0.0
 10
4.289527237111098
 20
7.440870098774246
 30
0.0
 10
4.288988370191779
 20
7.433900916666419
 30
0.0
 10
4.288627509737666
 20
7.4330031159683
 30
0.0
 10
4.288447075134297
 20
7.432554204731211
 30
0.0
  0
ARC
  5
C3
330
1F
100
AcDbEntity
  8
0
  6
Continuous
 62
     7
370
    30
100
AcDbCircle
 10
45.5016084039
 20
18.9550544044
 30
0.0
 40
0.0939999999999975
100
AcDbArc
 50
20.2272604771
 51
66.7437942019
  0
LINE
  5
C4
330
1F
100
AcDbEntity
  8
0
  6
Continuous
 62
     7
370
    30
100
AcDbLine
 10
4.2906083302
 20
30.5125538759
 30
0.0
 11
4.2906083302
 21
7.5275543873
 31
0.0
  0
LINE
  5
C5
330
1F
100
AcDbEntity
  8
0
  6
Continuous
 62
     7
370
    30
100
AcDbLine
 10
45.9006073279
 20
7.5275543873
 30
0.0
 11
45.9006073279
 21
30.5125538759
 31
0.0
  0
CIRCLE
  5
C6
330
1F
100
AcDbEntity
  8
0
  6
Continuous
 62
     7
370
    30
100
AcDbCircle
 10
44.8456084039
 20
7.9885544044
 30
0.0
 40
0.0940000000000012
  0
CIRCLE
  5
C7
330
1F
100
AcDbEntity
  8
0
  6
Continuous
 62
     7
370
    30
100
AcDbCircle
 10
31.8456084039
 20
7.9885544044
 30
0.0
 40
0.0940000000000012
  0
CIRCLE
  5
C8
330
1F
100
AcDbEntity
  8
0
  6
Continuous
 62
     7
370
    30
100
AcDbCircle
 10
18.3456084039
 20
7.9885544044
 30
0.0
 40
0.0940000000000021
  0
CIRCLE
  5
C9
330
1F
100
AcDbEntity
  8
0
  6
Continuous
 62
     7
370
    30
100
AcDbCircle
 10
18.3456084039
 20
30.0515544044
 30
0.0
 40
0.0940000000000012
  0
CIRCLE
  5
CA
330
1F
100
AcDbEntity
  8
0
  6
Continuous
 62
     7
370
    30
100
AcDbCircle
 10
44.8456084039
 20
30.0515544044
 30
0.0
 40
0.0940000000000012
  0
CIRCLE
  5
CB
330
1F
100
AcDbEntity
  8
0
  6
Continuous
 62
     7
370
    30
100
AcDbCircle
 10
45.5016084039
 20
29.0200544044
 30
0.0
 40
0.0940000000000012
  0
CIRCLE
  5
CC
330
1F
100
AcDbEntity
  8
0
  6
Continuous
 62
     7
370
    30
100
AcDbCircle
 10
4.6896084039
 20
29.0200544044
 30
0.0
 40
0.0940000000000012
  0
CIRCLE
  5
CD
330
1F
100
AcDbEntity
  8
0
  6
Continuous
 62
     7
370
    30
100
AcDbCircle
 10
4.6896084039
 20
9.0200544044
 30
0.0
 40
0.0939999999999976
  0
CIRCLE
  5
CE
330
1F
100
AcDbEntity
  8
0
  6
Continuous
 62
     7
370
    30
100
AcDbCircle
 10
4.6896084039
 20
19.0200544044
 30
0.0
 40
0.0940000000000012
  0
CIRCLE
  5
CF
330
1F
100
AcDbEntity
  8
0
  6
Continuous
 62
     7
370
    30
100
AcDbCircle
 10
5.3456084039
 20
7.9885544044
 30
0.0
 40
0.0939999999999976
  0
CIRCLE
  5
D0
330
1F
100
AcDbEntity
  8
0
  6
Continuous
 62
     7
370
    30
100
AcDbCircle
 10
45.5016084039
 20
19.0200544044
 30
0.0
 40
0.0940000000000012
  0
CIRCLE
  5
D1
330
1F
100
AcDbEntity
  8
0
  6
Continuous
 62
     7
370
    30
100
AcDbCircle
 10
5.3456084039
 20
30.0515544044
 30
0.0
 40
0.0940000000000012
  0
CIRCLE
  5
D2
330
1F
100
AcDbEntity
  8
0
  6
Continuous
 62
     7
370
    30
100
AcDbCircle
 10
45.5016084039
 20
9.0200544044
 30
0.0
 40
0.0939999999999976
  0
CIRCLE
  5
D3
330
1F
100
AcDbEntity
  8
0
  6
Continuous
 62
     7
370
    30
100
AcDbCircle
 10
31.8456084039
 20
30.0515544044
 30
0.0
 40
0.0940000000000012
  0
SPLINE
  5
D4
330
1F
100
AcDbEntity
  8
0
  6
Continuous
 62
     7
370
    30
100
AcDbSpline
210
0.0
220
0.0
230
1.0
 70
     8
 71
     3
 72
    11
 73
     7
 74
     0
 42
0.00000001
 43
0.00000001
 40
0.0
 40
0.0
 40
0.0
 40
0.0
 40
0.2500013228289713
 40
0.5000005905149507
 40
0.7500018824700634
 40
1.0
 40
1.0
 40
1.0
 40
1.0
 10
4.290608330167294
 20
30.51255387593885
 30
0.0
 10
4.290428561358042
 20
30.521726562857
 30
0.0
 10
4.290069025217331
 20
30.54007186128899
 30
0.0
 10
4.289527196283372
 20
30.56320989441657
 30
0.0
 10
4.288988399110917
 20
30.57939806544837
 30
0.0
 10
4.288627515696103
 20
30.58150211557327
 30
0.0
 10
4.288447075134297
 20
30.58255413395656
 30
0.0
  0
LINE
  5
D5
330
1F
100
AcDbEntity
  8
0
  6
Continuous
 62
     7
370
    30
100
AcDbLine
 10
4.2884470751
 20
30.582554134
 30
0.0
 11
5.2320930274
 21
30.582554134
 31
0.0
  0
LINE
  5
D6
330
1F
100
AcDbEntity
  8
0
  6
Continuous
 62
     7
370
    30
100
AcDbLine
 10
23.2721237674
 20
30.582554134
 30
0.0
 11
45.9027685829
 21
30.582554134
 31
0.0
  0
SPLINE
  5
D7
330
1F
100
AcDbEntity
  8
0
  6
Continuous
 62
     7
370
    30
100
AcDbSpline
210
0.0
220
0.0
230
1.0
 70
     8
 71
     3
 72
    11
 73
     7
 74
     0
 42
0.00000001
 43
0.00000001
 40
0.0
 40
0.0
 40
0.0
 40
0.0
 40
0.2499979050395713
 40
0.4999991968806409
 40
0.7499982520772314
 40
1.0
 40
1.0
 40
1.0
 40
1.0
 10
45.90276858294115
 20
30.58255413395656
 30
0.0
 10
45.90258868707374
 20
30.58150211336003
 30
0.0
 10
45.90222889290179
 20
30.5793980579149
 30
0.0
 10
45.90168896505511
 20
30.56320990996261
 30
0.0
 10
45.90115002623212
 20
30.54007182136031
 30
0.0
 10
45.90078822799896
 20
30.52172655734513
 30
0.0
 10
45.90060732790815
 20
30.51255387593885
 30
0.0
  0
LINE
  5
D8
330
1F
100
AcDbEntity
  8
0
  6
Continuous
 62
     7
370
    30
100
AcDbLine
 10
4.2884470751
 20
30.582554134
 30
0.0
 11
4.2884470751
 21
30.5425544894
 31
0.0
  0
LINE
  5
D9
330
1F
100
AcDbEntity
  8
0
  6
Continuous
 62
     7
370
    30
100
AcDbLine
 10
45.9027685829
 20
30.582554134
 30
0.0
 11
45.9027685829
 21
30.5425544894
 31
0.0
  0
SPLINE
  5
DA
330
1F
100
AcDbEntity
  8
0
  6
Continuous
 62
     7
370
    30
100
AcDbSpline
210
0.0
220
0.0
230
1.0
 70
     8
 71
     3
 72
    11
 73
     7
 74
     0
 42
0.00000001
 43
0.00000001
 40
0.0
 40
0.0
 40
0.0
 40
0.0
 40
0.2500023964790475
 40
0.5000025254319432
 40
0.749998926730849
 40
1.0
 40
1.0
 40
1.0
 40
1.0
 10
4.290608330167294
 20
7.527554387280995
 30
0.0
 10
4.281435678148968
 20
7.527374282880547
 30
0.0
 10
4.263090457308439
 20
7.5270140757132
 30
0.0
 10
4.239952089385317
 20
7.526473765123034
 30
0.0
 10
4.223765810169895
 20
7.52593343944785
 30
0.0
 10
4.221660658046525
 20
7.525573235769863
 30
0.0
 10
4.220608072149582
 20
7.525393132247998
 30
0.0
  0
LINE
  5
DB
330
1F
100
AcDbEntity
  8
0
  6
Continuous
 62
     7
370
    30
100
AcDbLine
 10
4.2206080721
 20
30.514715131
 30
0.0
 11
4.2206080721
 21
7.5253931322
 31
0.0
  0
SPLINE
  5
DC
330
1F
100
AcDbEntity
  8
0
  6
Continuous
 62
     7
370
    30
100
AcDbSpline
210
0.0
220
0.0
230
1.0
 70
     8
 71
     3
 72
    11
 73
     7
 74
     0
 42
0.00000001
 43
0.00000001
 40
0.0
 40
0.0
 40
0.0
 40
0.0
 40
0.250000967081212
 40
0.4999974745695318
 40
0.7499974973340877
 40
1.0
 40
1.0
 40
1.0
 40
1.0
 10
4.220608072149582
 20
30.51471513097185
 30
0.0
 10
4.221660659973693
 20
30.5145353626316
 30
0.0
 10
4.223765816845535
 20
30.51417582915788
 30
0.0
 10
4.239952077271302
 20
30.51363399559802
 30
0.0
 10
4.263090471250065
 20
30.51309519289491
 30
0.0
 10
4.281435680198833
 20
30.51273431552082
 30
0.0
 10
4.290608330167294
 20
30.51255387593885
 30
0.0
  0
LINE
  5
DD
330
1F
100
AcDbEntity
  8
0
  6
Continuous
 62
     7
370
    30
100
AcDbLine
 10
4.2206080721
 20
7.5253931322
 30
0.0
 11
4.2606088901
 21
7.5253931322
 31
0.0
  0
SPLINE
  5
DE
330
1F
100
AcDbEntity
  8
0
  6
Continuous
 62
     7
370
    30
100
AcDbSpline
210
0.0
220
0.0
230
1.0
 70
     8
 71
     3
 72
    11
 73
     7
 74
     0
 42
0.00000001
 43
0.00000001
 40
0.0
 40
0.0
 40
0.0
 40
0.0
 40
0.250010695945076
 40
0.4999994567582621
 40
0.75000555724761
 40
1.0
 40
1.0
 40
1.0
 40
1.0
 10
45.90060732790815
 20
30.51255387593885
 30
0.0
 10
45.90978050047337
 20
30.51273431049451
 30
0.0
 10
45.92812604077925
 20
30.5130951637751
 30
0.0
 10
45.95126324923673
 20
30.51363402899333
 30
0.0
 10
45.96745319288227
 20
30.51417580424649
 30
0.0
 10
45.9695561379217
 20
30.51453535819112
 30
0.0
 10
45.97060758592587
 20
30.51471513097185
 30
0.0
  0
LINE
  5
DF
330
1F
100
AcDbEntity
  8
0
  6
Continuous
 62
     7
370
    30
100
AcDbLine
 10
45.9706075859
 20
7.5253931322
 30
0.0
 11
45.9706075859
 21
30.514715131
 31
0.0
  0
SPLINE
  5
E0
330
1F
100
AcDbEntity
  8
0
  6
Continuous
 62
     7
370
    30
100
AcDbSpline
210
0.0
220
0.0
230
1.0
 70
     8
 71
     3
 72
    11
 73
     7
 74
     0
 42
0.00000001
 43
0.00000001
 40
0.0
 40
0.0
 40
0.0
 40
0.0
 40
0.2499945489373359
 40
0.5000005432395555
 40
0.7499894102400985
 40
1.0
 40
1.0
 40
1.0
 40
1.0
 10
45.97060758592587
 20
7.525393132247998
 30
0.0
 10
45.96955613984905
 20
7.52557324020338
 30
0.0
 10
45.96745319955762
 20
7.52593346435993
 30
0.0
 10
45.95126323712235
 20
7.526473731729079
 30
0.0
 10
45.92812605472068
 20
7.527014104833586
 30
0.0
 10
45.90978050252329
 20
7.52737428791574
 30
0.0
 10
45.90060732790815
 20
7.527554387280995
 30
0.0
  0
SPLINE
  5
E1
330
1F
100
AcDbEntity
  8
0
  6
Continuous
 62
     7
370
    30
100
AcDbSpline
210
0.0
220
0.0
230
1.0
 70
     8
 71
     3
 72
    11
 73
     7
 74
     0
 42
0.00000001
 43
0.00000001
 40
0.0
 40
0.0
 40
0.0
 40
0.0
 40
0.2500022316778664
 40
0.5000017706243443
 40
0.750000564031185
 40
0.9999999999999999
 40
0.9999999999999999
 40
0.9999999999999999
 40
0.9999999999999999
 10
45.90060732790815
 20
7.527554387280995
 30
0.0
 10
45.90078822820411
 20
7.518381722299518
 30
0.0
 10
45.90115002684757
 20
7.50003649113377
 30
0.0
 10
45.90168896045041
 20
7.476898248165418
 30
0.0
 10
45.90222889859147
 20
7.460711036723806
 30
0.0
 10
45.9025886880038
 20
7.458606432651686
 30
0.0
 10
45.90276858294115
 20
7.457554129263283
 30
0.0
  0
LINE
  5
E2
330
1F
100
AcDbEntity
  8
0
  6
Continuous
 62
     7
370
    30
100
AcDbLine
 10
4.2884470751
 20
7.4575541293
 30
0.0
 11
5.2320930274
 21
7.4575541293
 31
0.0
  0
LINE
  5
E3
330
1F
100
AcDbEntity
  8
0
  6
Continuous
 62
     7
370
    30
100
AcDbLine
 10
23.2721237674
 20
7.4575541293
 30
0.0
 11
45.9027685829
 21
7.4575541293
 31
0.0
  0
SPLINE
  5
E4
330
1F
100
AcDbEntity
  8
0
  6
Continuous
 62
     7
370
    30
100
AcDbSpline
210
0.0
220
0.0
230
1.0
 70
     8
 71
     3
 72
    11
 73
     7
 74
     0
 42
0.00000001
 43
0.00000001
 40
0.0
 40
0.0
 40
0.0
 40
0.0
 40
0.2499996484589251
 40
0.4999984419800304
 40
0.7499981934165308
 40
1.0
 40
1.0
 40
1.0
 40
1.0
 10
4.288447075134297
 20
7.457554129263283
 30
0.0
 10
4.288627514767069
 20
7.458606430438509
 30
0.0
 10
4.288988393415529
 20
7.460711029190343
 30
0.0
 10
4.289527200896987
 20
7.476898263711196
 30
0.0
 10
4.290069024602522
 20
7.500036451204986
 30
0.0
 10
4.290428561153106
 20
7.518381716787593
 30
0.0
 10
4.290608330167294
 20
7.527554387280995
 30
0.0
  0
LINE
  5
E5
330
1F
100
AcDbEntity
  8
0
  6
Continuous
 62
     7
370
    30
100
AcDbLine
 10
4.2206080721
 20
30.514715131
 30
0.0
 11
4.2606088901
 21
30.514715131
 31
0.0
  0
LINE
  5
E6
330
1F
100
AcDbEntity
  8
0
  6
Continuous
 62
     7
370
    30
100
AcDbLine
 10
4.2884470751
 20
7.4575541293
 30
0.0
 11
4.2884470751
 21
7.4975543605
 31
0.0
  0
LINE
  5
E7
330
1F
100
AcDbEntity
  8
0
  6
Continuous
 62
     7
370
    30
100
AcDbLine
 10
45.9706075859
 20
30.514715131
 30
0.0
 11
45.9306091147
 21
30.514715131
 31
0.0
  0
LINE
  5
E8
330
1F
100
AcDbEntity
  8
0
  6
Continuous
 62
     7
370
    30
100
AcDbLine
 10
45.9027685829
 20
7.4575541293
 30
0.0
 11
45.9027685829
 21
7.4975543605
 31
0.0
  0
LINE
  5
E9
330
1F
100
AcDbEntity
  8
0
  6
Continuous
 62
     7
370
    30
100
AcDbLine
 10
45.9706075859
 20
7.5253931322
 30
0.0
 11
45.9306091147
 21
7.5253931322
 31
0.0
  0
LINE
  5
EA
330
1F
100
AcDbEntity
  8
0
  6
Continuous
 62
     7
370
    30
100
AcDbLine
 10
45.9986076891
 20
15.4975544105
 30
0.0
 11
45.9986076891
 21
22.4975542526
 31
0.0
  0
LINE
  5
EB
330
1F
100
AcDbEntity
  8
0
  6
Continuous
 62
     7
370
    30
100
AcDbLine
 10
45.9986076891
 20
15.4975544105
 30
0.0
 11
45.9706075859
 21
15.4975544105
 31
0.0
  0
LINE
  5
EC
330
1F
100
AcDbEntity
  8
0
  6
Continuous
 62
     7
370
    30
100
AcDbLine
 10
45.9986076891
 20
22.4975542526
 30
0.0
 11
45.9706075859
 21
22.4975542526
 31
0.0
  0
LINE
  5
ED
330
1F
100
AcDbEntity
  8
0
  6
Continuous
 62
     7
370
    30
100
AcDbLine
 10
49.930608773
 20
15.4975544105
 30
0.0
 11
50.5396086711
 21
16.1065543819
 31
0.0
  0
LINE
  5
EE
330
1F
100
AcDbEntity
  8
0
  6
Continuous
 62
     7
370
    30
100
AcDbLine
 10
49.930608773
 20
15.4975544105
 30
0.0
 11
45.9986076891
 21
15.4975544105
 31
0.0
  0
LINE
  5
EF
330
1F
100
AcDbEntity
  8
0
  6
Continuous
 62
     7
370
    30
100
AcDbLine
 10
49.930608773
 20
22.4975542526
 30
0.0
 11
45.9986076891
 21
22.4975542526
 31
0.0
  0
LINE
  5
F0
330
1F
100
AcDbEntity
  8
0
  6
Continuous
 62
     7
370
    30
100
AcDbLine
 10
50.5396086711
 20
16.1065543819
 30
0.0
 11
50.5396086711
 21
21.8885543545
 31
0.0
  0
CIRCLE
  5
F1
330
1F
100
AcDbEntity
  8
0
  6
Continuous
 62
     7
370
    30
100
AcDbCircle
 10
46.4146084039
 20
15.8415544044
 30
0.0
 40
0.09375
  0
CIRCLE
  5
F2
330
1F
100
AcDbEntity
  8
0
  6
Continuous
 62
     7
370
    30
100
AcDbCircle
 10
47.8686084039
 20
17.9975544044
 30
0.0
 40
0.09375
  0
CIRCLE
  5
F3
330
1F
100
AcDbEntity
  8
0
  6
Continuous
 62
     7
370
    30
100
AcDbCircle
 10
48.7896084039
 20
15.8415544044
 30
0.0
 40
0.09375
  0
CIRCLE
  5
F4
330
1F
100
AcDbEntity
  8
0
  6
Continuous
 62
     7
370
    30
100
AcDbCircle
 10
48.7896084039
 20
22.1535544044
 30
0.0
 40
0.09375
  0
CIRCLE
  5
F5
330
1F
100
AcDbEntity
  8
0
  6
Continuous
 62
     7
370
    30
100
AcDbCircle
 10
47.8686084039
 20
19.9975544044
 30
0.0
 40
0.09375
  0
CIRCLE
  5
F6
330
1F
100
AcDbEntity
  8
0
  6
Continuous
 62
     7
370
    30
100
AcDbCircle
 10
46.4146084039
 20
22.1535544044
 30
0.0
 40
0.09375
  0
LINE
  5
F7
330
1F
100
AcDbEntity
  8
0
  6
Continuous
 62
     7
370
    30
100
AcDbLine
 10
50.5396086711
 20
21.8885543545
 30
0.0
 11
49.930608773
 21
22.4975542526
 31
0.0
  0
LINE
  5
F8
330
1F
100
AcDbEntity
  8
0
  6
Continuous
 62
     7
370
    30
100
AcDbLine
 10
49.9716092593
 20
22.4565543529
 30
0.0
 11
49.9716092593
 21
22.4995541761
 31
0.0
  0
LINE
  5
F9
330
1F
100
AcDbEntity
  8
0
  6
Continuous
 62
     7
370
    30
100
AcDbLine
 10
45.9986076891
 20
22.4995541761
 30
0.0
 11
45.9986076891
 21
22.4975542526
 31
0.0
  0
LINE
  5
FA
330
1F
100
AcDbEntity
  8
0
  6
Continuous
 62
     7
370
    30
100
AcDbLine
 10
45.9986076891
 20
22.4995541761
 30
0.0
 11
49.9716092593
 21
22.4995541761
 31
0.0
  0
CIRCLE
  5
FB
330
1F
100
AcDbEntity
  8
0
  6
Continuous
 62
     7
370
    30
100
AcDbCircle
 10
48.7896084039
 20
22.1535544044
 30
0.0
 40
0.0805000000000078
  0
CIRCLE
  5
FC
330
1F
100
AcDbEntity
  8
0
  6
Continuous
 62
     7
370
    30
100
AcDbCircle
 10
46.4146084039
 20
22.1535544044
 30
0.0
 40
0.0805000000000078
  0
LINE
  5
FD
330
1F
100
AcDbEntity
  8
0
  6
Continuous
 62
     7
370
    30
100
AcDbLine
 10
49.9716092593
 20
22.6255546406
 30
0.0
 11
49.9716092593
 21
22.6645546167
 31
0.0
  0
LINE
  5
FE
330
1F
100
AcDbEntity
  8
0
  6
Continuous
 62
     7
370
    30
100
AcDbLine
 10
49.9716092593
 20
22.6255546406
 30
0.0
 11
49.9686079074
 21
22.6255546406
 31
0.0
  0
LINE
  5
FF
330
1F
100
AcDbEntity
  8
0
  6
Continuous
 62
     7
370
    30
100
AcDbLine
 10
49.9686079074
 20
22.6645546167
 30
0.0
 11
49.9686079074
 21
22.6255546406
 31
0.0
  0
LINE
  5
100
330
1F
100
AcDbEntity
  8
0
  6
Continuous
 62
     7
370
    30
100
AcDbLine
 10
49.9716092593
 20
22.6645546167
 30
0.0
 11
49.9686079074
 21
22.6645546167
 31
0.0
  0
LINE
  5
101
330
1F
100
AcDbEntity
  8
0
  6
Continuous
 62
     7
370
    30
100
AcDbLine
 10
49.9716092593
 20
22.5285545344
 30
0.0
 11
49.9716092593
 21
22.4995541761
 31
0.0
  0
LINE
  5
102
330
1F
100
AcDbEntity
  8
0
  6
Continuous
 62
     7
370
    30
100
AcDbLine
 10
45.9986076891
 20
22.4995541761
 30
0.0
 11
45.9986076891
 21
22.5285545344
 31
0.0
  0
LINE
  5
103
330
1F
100
AcDbEntity
  8
0
  6
Continuous
 62
     7
370
    30
100
AcDbLine
 10
45.9986076891
 20
22.5675545106
 30
0.0
 11
49.9716092593
 21
22.5675545106
 31
0.0
  0
LINE
  5
104
330
1F
100
AcDbEntity
  8
0
  6
Continuous
 62
     7
370
    30
100
AcDbLine
 10
49.5396093432
 20
22.6255546406
 30
0.0
 11
49.5396093432
 21
22.6645546167
 31
0.0
  0
LINE
  5
105
330
1F
100
AcDbEntity
  8
0
  6
Continuous
 62
     7
370
    30
100
AcDbLine
 10
49.9686079074
 20
22.6255546406
 30
0.0
 11
49.5396093432
 21
22.6255546406
 31
0.0
  0
LINE
  5
106
330
1F
100
AcDbEntity
  8
0
  6
Continuous
 62
     7
370
    30
100
AcDbLine
 10
49.5396093432
 20
22.6645546167
 30
0.0
 11
49.9686079074
 21
22.6645546167
 31
0.0
  0
ARC
  5
107
330
1F
100
AcDbEntity
  8
0
  6
Continuous
 62
     7
370
    30
100
AcDbCircle
 10
49.9716084039
 20
22.5965544044
 30
0.0
 40
0.0289999999999999
100
AcDbArc
 50
270.0
 51
90.0
  0
ARC
  5
108
330
1F
100
AcDbEntity
  8
0
  6
Continuous
 62
     7
370
    30
100
AcDbCircle
 10
49.9716084039
 20
22.5965544044
 30
0.0
 40
0.0680000000000014
100
AcDbArc
 50
270.0
 51
90.0
  0
LINE
  5
109
330
1F
100
AcDbEntity
  8
0
  6
Continuous
 62
     7
370
    30
100
AcDbLine
 10
49.9716092593
 20
22.5675545106
 30
0.0
 11
49.9716092593
 21
22.5285545344
 31
0.0
  0
LINE
  5
10A
330
1F
100
AcDbEntity
  8
0
  6
Continuous
 62
     7
370
    30
100
AcDbLine
 10
45.9986076891
 20
22.5675545106
 30
0.0
 11
45.9986076891
 21
22.5285545344
 31
0.0
  0
ARC
  5
10B
330
1F
100
AcDbEntity
  8
0
  6
Continuous
 62
     7
370
    30
100
AcDbCircle
 10
45.9986084039
 20
22.5965544044
 30
0.0
 40
0.0680000000000014
100
AcDbArc
 50
245.6842608289
 51
270.0
  0
ARC
  5
10C
330
1F
100
AcDbEntity
  8
0
  6
Continuous
 62
     7
370
    30
100
AcDbCircle
 10
45.9986084039
 20
22.5965544044
 30
0.0
 40
0.0290000000000035
100
AcDbArc
 50
195.0901851799
 51
270.0
  0
LINE
  5
10D
330
1F
100
AcDbEntity
  8
0
  6
Continuous
 62
     7
370
    30
100
AcDbLine
 10
45.9986076891
 20
15.4975544105
 30
0.0
 11
45.9986076891
 21
15.4955543403
 31
0.0
  0
LINE
  5
10E
330
1F
100
AcDbEntity
  8
0
  6
Continuous
 62
     7
370
    30
100
AcDbLine
 10
49.9716092593
 20
15.4955543403
 30
0.0
 11
49.9716092593
 21
15.5385544569
 31
0.0
  0
LINE
  5
10F
330
1F
100
AcDbEntity
  8
0
  6
Continuous
 62
     7
370
    30
100
AcDbLine
 10
49.9716092593
 20
15.4955543403
 30
0.0
 11
45.9986076891
 21
15.4955543403
 31
0.0
  0
CIRCLE
  5
110
330
1F
100
AcDbEntity
  8
0
  6
Continuous
 62
     7
370
    30
100
AcDbCircle
 10
48.7896084039
 20
15.8415544044
 30
0.0
 40
0.0805000000000007
  0
CIRCLE
  5
111
330
1F
100
AcDbEntity
  8
0
  6
Continuous
 62
     7
370
    30
100
AcDbCircle
 10
46.4146084039
 20
15.8415544044
 30
0.0
 40
0.0804999999999989
  0
LINE
  5
112
330
1F
100
AcDbEntity
  8
0
  6
Continuous
 62
     7
370
    30
100
AcDbLine
 10
45.9986076891
 20
15.4665544219
 30
0.0
 11
45.9986076891
 21
15.4955543403
 31
0.0
  0
LINE
  5
113
330
1F
100
AcDbEntity
  8
0
  6
Continuous
 62
     7
370
    30
100
AcDbLine
 10
49.9716092593
 20
15.4955543403
 30
0.0
 11
49.9716092593
 21
15.4665544219
 31
0.0
  0
LINE
  5
114
330
1F
100
AcDbEntity
  8
0
  6
Continuous
 62
     7
370
    30
100
AcDbLine
 10
49.9716092593
 20
15.4275544458
 30
0.0
 11
45.9986076891
 21
15.4275544458
 31
0.0
  0
LINE
  5
115
330
1F
100
AcDbEntity
  8
0
  6
Continuous
 62
     7
370
    30
100
AcDbLine
 10
49.9716092593
 20
15.4275544458
 30
0.0
 11
49.9716092593
 21
15.4665544219
 31
0.0
  0
LINE
  5
116
330
1F
100
AcDbEntity
  8
0
  6
Continuous
 62
     7
370
    30
100
AcDbLine
 10
49.9716092593
 20
15.3695544625
 30
0.0
 11
49.9716092593
 21
15.3305543397
 31
0.0
  0
ARC
  5
117
330
1F
100
AcDbEntity
  8
0
  6
Continuous
 62
     7
370
    30
100
AcDbCircle
 10
49.9716084039
 20
15.3985544044
 30
0.0
 40
0.0290000000000017
100
AcDbArc
 50
270.0
 51
90.0
  0
ARC
  5
118
330
1F
100
AcDbEntity
  8
0
  6
Continuous
 62
     7
370
    30
100
AcDbCircle
 10
49.9716084039
 20
15.3985544044
 30
0.0
 40
0.0680000000000014
100
AcDbArc
 50
270.0
 51
90.0
  0
LINE
  5
119
330
1F
100
AcDbEntity
  8
0
  6
Continuous
 62
     7
370
    30
100
AcDbLine
 10
49.9686079074
 20
15.3695544625
 30
0.0
 11
49.9686079074
 21
15.3305543397
 31
0.0
  0
LINE
  5
11A
330
1F
100
AcDbEntity
  8
0
  6
Continuous
 62
     7
370
    30
100
AcDbLine
 10
49.9686079074
 20
15.3695544625
 30
0.0
 11
49.9716092593
 21
15.3695544625
 31
0.0
  0
LINE
  5
11B
330
1F
100
AcDbEntity
  8
0
  6
Continuous
 62
     7
370
    30
100
AcDbLine
 10
49.9686079074
 20
15.3305543397
 30
0.0
 11
49.9716092593
 21
15.3305543397
 31
0.0
  0
LINE
  5
11C
330
1F
100
AcDbEntity
  8
0
  6
Continuous
 62
     7
370
    30
100
AcDbLine
 10
49.5396093432
 20
15.3305543397
 30
0.0
 11
49.5396093432
 21
15.3695544625
 31
0.0
  0
LINE
  5
11D
330
1F
100
AcDbEntity
  8
0
  6
Continuous
 62
     7
370
    30
100
AcDbLine
 10
49.5396093432
 20
15.3695544625
 30
0.0
 11
49.9686079074
 21
15.3695544625
 31
0.0
  0
LINE
  5
11E
330
1F
100
AcDbEntity
  8
0
  6
Continuous
 62
     7
370
    30
100
AcDbLine
 10
49.9686079074
 20
15.3305543397
 30
0.0
 11
49.5396093432
 21
15.3305543397
 31
0.0
  0
ARC
  5
11F
330
1F
100
AcDbEntity
  8
0
  6
Continuous
 62
     7
370
    30
100
AcDbCircle
 10
45.9986084039
 20
15.3985544044
 30
0.0
 40
0.0680000000000005
100
AcDbArc
 50
90.0
 51
114.3157391711
  0
ARC
  5
120
330
1F
100
AcDbEntity
  8
0
  6
Continuous
 62
     7
370
    30
100
AcDbCircle
 10
45.9986084039
 20
15.3985544044
 30
0.0
 40
0.0290000000000019
100
AcDbArc
 50
90.0
 51
164.9098148202
  0
LINE
  5
121
330
1F
100
AcDbEntity
  8
0
  6
Continuous
 62
     7
370
    30
100
AcDbLine
 10
45.9986076891
 20
15.4275544458
 30
0.0
 11
45.9986076891
 21
15.4665544219
 31
0.0
  0
ARC
  5
122
330
1F
100
AcDbEntity
  8
0
  6
Continuous
 62
     7
370
    30
100
AcDbCircle
 10
17.2521084039
 20
4.306539048
 30
0.0
 40
0.4375000000000071
100
AcDbArc
 50
278.2793756981
 51
81.7206243019
  0
LINE
  5
123
330
1F
100
AcDbEntity
  8
0
  6
Continuous
 62
     7
370
    30
100
AcDbLine
 10
17.3151084834
 20
4.6764794298
 30
0.0
 11
17.3151084834
 21
4.739479662
 31
0.0
  0
LINE
  5
124
330
1F
100
AcDbEntity
  8
0
  6
Continuous
 62
     7
370
    30
100
AcDbLine
 10
17.1891083123
 20
4.6764794298
 30
0.0
 11
17.3151084834
 21
4.6764794298
 31
0.0
  0
LINE
  5
125
330
1F
100
AcDbEntity
  8
0
  6
Continuous
 62
     7
370
    30
100
AcDbLine
 10
17.1891083123
 20
4.739479662
 30
0.0
 11
17.1891083123
 21
4.6764794298
 31
0.0
  0
ARC
  5
126
330
1F
100
AcDbEntity
  8
0
  6
Continuous
 62
     7
370
    30
100
AcDbCircle
 10
17.2521084039
 20
4.306539048
 30
0.0
 40
0.4375000000000022
100
AcDbArc
 50
98.2793756981
 51
261.7206243019
  0
LINE
  5
127
330
1F
100
AcDbEntity
  8
0
  6
Continuous
 62
     7
370
    30
100
AcDbLine
 10
17.1891083123
 20
3.9363281934
 30
0.0
 11
17.1891083123
 21
3.8735989981
 31
0.0
  0
LINE
  5
128
330
1F
100
AcDbEntity
  8
0
  6
Continuous
 62
     7
370
    30
100
AcDbLine
 10
17.3151084834
 20
3.9365992303
 30
0.0
 11
17.1891083123
 21
3.9363281934
 31
0.0
  0
LINE
  5
129
330
1F
100
AcDbEntity
  8
0
  6
Continuous
 62
     7
370
    30
100
AcDbLine
 10
17.3151084834
 20
3.8735989981
 30
0.0
 11
17.3151084834
 21
3.9365992303
 31
0.0
  0
ARC
  5
12A
330
1F
100
AcDbEntity
  8
0
  6
Continuous
 62
     7
370
    30
100
AcDbCircle
 10
11.2521084039
 20
4.306539048
 30
0.0
 40
0.4375000000000068
100
AcDbArc
 50
278.2793756981
 51
81.7206243019
  0
LINE
  5
12B
330
1F
100
AcDbEntity
  8
0
  6
Continuous
 62
     7
370
    30
100
AcDbLine
 10
11.3151084092
 20
4.6764794298
 30
0.0
 11
11.3151084092
 21
4.739479662
 31
0.0
  0
LINE
  5
12C
330
1F
100
AcDbEntity
  8
0
  6
Continuous
 62
     7
370
    30
100
AcDbLine
 10
11.1891079448
 20
4.6764794298
 30
0.0
 11
11.3151084092
 21
4.6764794298
 31
0.0
  0
LINE
  5
12D
330
1F
100
AcDbEntity
  8
0
  6
Continuous
 62
     7
370
    30
100
AcDbLine
 10
11.1891079448
 20
4.739479662
 30
0.0
 11
11.1891079448
 21
4.6764794298
 31
0.0
  0
ARC
  5
12E
330
1F
100
AcDbEntity
  8
0
  6
Continuous
 62
     7
370
    30
100
AcDbCircle
 10
11.2521084039
 20
4.306539048
 30
0.0
 40
0.4375000000000075
100
AcDbArc
 50
98.2793756981
 51
261.7206243019
  0
LINE
  5
12F
330
1F
100
AcDbEntity
  8
0
  6
Continuous
 62
     7
370
    30
100
AcDbLine
 10
11.1891079448
 20
3.9363281934
 30
0.0
 11
11.1891079448
 21
3.8735989981
 31
0.0
  0
LINE
  5
130
330
1F
100
AcDbEntity
  8
0
  6
Continuous
 62
     7
370
    30
100
AcDbLine
 10
11.3151084092
 20
3.9365992303
 30
0.0
 11
11.1891079448
 21
3.9363281934
 31
0.0
  0
LINE
  5
131
330
1F
100
AcDbEntity
  8
0
  6
Continuous
 62
     7
370
    30
100
AcDbLine
 10
11.3151084092
 20
3.8735989981
 30
0.0
 11
11.3151084092
 21
3.9365992303
 31
0.0
  0
LINE
  5
132
330
1F
100
AcDbEntity
  8
0
  6
Continuous
 62
     7
370
    30
100
AcDbLine
 10
5.2670931564
 20
7.5085237271
 30
0.0
 11
5.2811237143
 21
7.522554285
 31
0.0
  0
LINE
  5
133
330
1F
100
AcDbEntity
  8
0
  6
Continuous
 62
     7
370
    30
100
AcDbLine
 10
5.2811237143
 20
7.522554285
 30
0.0
 11
23.2230930805
 21
7.522554285
 31
0.0
  0
LINE
  5
134
330
1F
100
AcDbEntity
  8
0
  6
Continuous
 62
     7
370
    30
100
AcDbLine
 10
23.2371237851
 20
7.5085237271
 30
0.0
 11
23.2371237851
 21
1.2130389064
 31
0.0
  0
LINE
  5
135
330
1F
100
AcDbEntity
  8
0
  6
Continuous
 62
     7
370
    30
100
AcDbLine
 10
23.1471237781
 20
1.2130389064
 30
0.0
 11
23.2371237851
 21
1.2130389064
 31
0.0
  0
LINE
  5
136
330
1F
100
AcDbEntity
  8
0
  6
Continuous
 62
     7
370
    30
100
AcDbLine
 10
5.3341237421
 20
1.2130389064
 30
0.0
 11
5.2670931564
 21
1.2130389064
 31
0.0
  0
LINE
  5
137
330
1F
100
AcDbEntity
  8
0
  6
Continuous
 62
     7
370
    30
100
AcDbLine
 10
5.2670931564
 20
1.2130389064
 30
0.0
 11
5.2670931564
 21
7.5085237271
 31
0.0
  0
LINE
  5
138
330
1F
100
AcDbEntity
  8
0
  6
Continuous
 62
     7
370
    30
100
AcDbLine
 10
23.2371237851
 20
7.5085237271
 30
0.0
 11
23.2230930805
 21
7.522554285
 31
0.0
  0
SPLINE
  5
139
330
1F
100
AcDbEntity
  8
0
  6
Continuous
 62
     7
370
    30
100
AcDbSpline
210
0.0
220
0.0
230
1.0
 70
     8
 71
     3
 72
    11
 73
     7
 74
     0
 42
0.00000001
 43
0.00000001
 40
0.0
 40
0.0
 40
0.0
 40
0.0
 40
0.2500021400413372
 40
0.5000020302963301
 40
0.7500002119171832
 40
1.0
 40
1.0
 40
1.0
 40
1.0
 10
23.27212376741454
 20
7.503554131200668
 30
0.0
 10
23.27159765666288
 20
7.503968294873507
 30
0.0
 10
23.27054543989408
 20
7.504796618492089
 30
0.0
 10
23.26245174214727
 20
7.506039426986634
 30
0.0
 10
23.25088258282978
 20
7.507280987639314
 30
0.0
 10
23.24171006081394
 20
7.508109479742346
 30
0.0
 10
23.23712378507066
 20
7.508523727124806
 30
0.0
  0
LINE
  5
13A
330
1F
100
AcDbEntity
  8
0
  6
Continuous
 62
     7
370
    30
100
AcDbLine
 10
23.2721237674
 20
7.5035541312
 30
0.0
 11
23.2721237674
 21
1.2130389064
 31
0.0
  0
LINE
  5
13B
330
1F
100
AcDbEntity
  8
0
  6
Continuous
 62
     7
370
    30
100
AcDbLine
 10
23.2371237851
 20
1.2130389064
 30
0.0
 11
23.2721237674
 21
1.2130389064
 31
0.0
  0
SPLINE
  5
13C
330
1F
100
AcDbEntity
  8
0
  6
Continuous
 62
     7
370
    30
100
AcDbSpline
210
0.0
220
0.0
230
1.0
 70
     8
 71
     3
 72
    11
 73
     7
 74
     0
 42
0.00000001
 43
0.00000001
 40
0.0
 40
0.0
 40
0.0
 40
0.0
 40
0.2499969550592298
 40
0.5000032841386856
 40
0.7499920645442036
 40
1.0
 40
1.0
 40
1.0
 40
1.0
 10
5.281123714315719
 20
7.522554285042603
 30
0.0
 10
5.281330473427463
 20
7.524845959709702
 30
0.0
 10
5.281743999403698
 20
7.529429394973762
 30
0.0
 10
5.282366730748102
 20
7.536023086962016
 30
0.0
 10
5.282986559229792
 20
7.542167355234374
 30
0.0
 10
5.283401384851047
 20
7.545591154117122
 30
0.0
 10
5.283608805607733
 20
7.54730311914196
 30
0.0
  0
SPLINE
  5
13D
330
1F
100
AcDbEntity
  8
0
  6
Continuous
 62
     7
370
    30
100
AcDbSpline
210
0.0
220
0.0
230
1.0
 70
     8
 71
     3
 72
    11
 73
     7
 74
     0
 42
0.00000001
 43
0.00000001
 40
0.0
 40
0.0
 40
0.0
 40
0.0
 40
0.249992169244835
 40
0.4999994477007825
 40
0.7500049303484955
 40
1.0
 40
1.0
 40
1.0
 40
1.0
 10
5.283608805607733
 20
7.54730311914196
 30
0.0
 10
5.283401376136539
 20
7.548831985678384
 30
0.0
 10
5.282986504657392
 20
7.551889811154003
 30
0.0
 10
5.282366766419699
 20
7.555071469544908
 30
0.0
 10
5.281743996008361
 20
7.557166650410228
 30
0.0
 10
5.281330472009258
 20
7.557425161298965
 30
0.0
 10
5.281123714315719
 20
7.557554414051459
 30
0.0
  0
LINE
  5
13E
330
1F
100
AcDbEntity
  8
0
  6
Continuous
 62
     7
370
    30
100
AcDbLine
 10
5.2811237143
 20
7.5575544141
 30
0.0
 11
23.2230930805
 21
7.5575544141
 31
0.0
  0
SPLINE
  5
13F
330
1F
100
AcDbEntity
  8
0
  6
Continuous
 62
     7
370
    30
100
AcDbSpline
210
0.0
220
0.0
230
1.0
 70
     8
 71
     3
 72
    11
 73
     7
 74
     0
 42
0.00000001
 43
0.00000001
 40
0.0
 40
0.0
 40
0.0
 40
0.0
 40
0.2499901293876371
 40
0.4999994475950681
 40
0.7500028905326444
 40
1.0
 40
1.0
 40
1.0
 40
1.0
 10
23.22060842919079
 20
7.54730311914196
 30
0.0
 10
23.22081546702455
 20
7.548831990943263
 30
0.0
 10
23.22122955858393
 20
7.551889851899487
 30
0.0
 10
23.22185077494992
 20
7.555071437153211
 30
0.0
 10
23.22247184724089
 20
7.557166667476067
 30
0.0
 10
23.22288600448758
 20
7.557425166284458
 30
0.0
 10
23.22309308048789
 20
7.557554414051459
 30
0.0
  0
SPLINE
  5
140
330
1F
100
AcDbEntity
  8
0
  6
Continuous
 62
     7
370
    30
100
AcDbSpline
210
0.0
220
0.0
230
1.0
 70
     8
 71
     3
 72
    11
 73
     7
 74
     0
 42
0.00000001
 43
0.00000001
 40
0.0
 40
0.0
 40
0.0
 40
0.0
 40
0.2499989948111793
 40
0.5000032841082618
 40
0.7499941043088343
 40
1.0
 40
1.0
 40
1.0
 40
1.0
 10
23.22309308048789
 20
7.522554285042603
 30
0.0
 10
23.22288600306677
 20
7.524845947279569
 30
0.0
 10
23.22247184383905
 20
7.529429320286381
 30
0.0
 10
23.22185081059967
 20
7.536023165158403
 30
0.0
 10
23.22122950401405
 20
7.542167290353285
 30
0.0
 10
23.2208154582932
 20
7.545591141801352
 30
0.0
 10
23.22060842919079
 20
7.54730311914196
 30
0.0
  0
LINE
  5
141
330
1F
100
AcDbEntity
  8
0
  6
Continuous
 62
     7
370
    30
100
AcDbLine
 10
5.2670931564
 20
1.2130389064
 30
0.0
 11
5.2320930274
 21
1.2130389064
 31
0.0
  0
LINE
  5
142
330
1F
100
AcDbEntity
  8
0
  6
Continuous
 62
     7
370
    30
100
AcDbLine
 10
5.2320930274
 20
1.2130389064
 30
0.0
 11
5.2320930274
 21
7.5035541312
 31
0.0
  0
SPLINE
  5
143
330
1F
100
AcDbEntity
  8
0
  6
Continuous
 62
     7
370
    30
100
AcDbSpline
210
0.0
220
0.0
230
1.0
 70
     8
 71
     3
 72
    11
 73
     7
 74
     0
 42
0.00000001
 43
0.00000001
 40
0.0
 40
0.0
 40
0.0
 40
0.0
 40
0.2500037834478328
 40
0.5000003197636697
 40
0.7500077025049459
 40
1.0
 40
1.0
 40
1.0
 40
1.0
 10
5.232093027389066
 20
7.503554131200668
 30
0.0
 10
5.232619319504781
 20
7.503968290676854
 30
0.0
 10
5.233671888480014
 20
7.504796597623525
 30
0.0
 10
5.241765028270648
 20
7.506039473305958
 30
0.0
 10
5.253334616577506
 20
7.507280932877141
 30
0.0
 10
5.262507068703639
 20
7.50810947070805
 30
0.0
 10
5.267093156397922
 20
7.508523727124806
 30
0.0
  0
LINE
  5
144
330
1F
100
AcDbEntity
  8
0
  6
Continuous
 62
     7
370
    30
100
AcDbLine
 10
23.2230930805
 20
7.5235545402
 30
0.0
 11
23.2230930805
 21
7.5575544141
 31
0.0
  0
LINE
  5
145
330
1F
100
AcDbEntity
  8
0
  6
Continuous
 62
     7
370
    30
100
AcDbLine
 10
5.2811237143
 20
7.5235545402
 30
0.0
 11
5.2811237143
 21
7.5575544141
 31
0.0
  0
LINE
  5
146
330
1F
100
AcDbEntity
  8
0
  6
Continuous
 62
     7
370
    30
100
AcDbLine
 10
23.2230930805
 20
7.5575544141
 30
0.0
 11
23.2371237851
 21
7.5575544141
 31
0.0
  0
LINE
  5
147
330
1F
100
AcDbEntity
  8
0
  6
Continuous
 62
     7
370
    30
100
AcDbLine
 10
23.2371237851
 20
7.5235545402
 30
0.0
 11
23.2371237851
 21
7.5575544141
 31
0.0
  0
LINE
  5
148
330
1F
100
AcDbEntity
  8
0
  6
Continuous
 62
     7
370
    30
100
AcDbLine
 10
23.2230930805
 20
7.5235545402
 30
0.0
 11
23.2371237851
 21
7.5235545402
 31
0.0
  0
LINE
  5
149
330
1F
100
AcDbEntity
  8
0
  6
Continuous
 62
     7
370
    30
100
AcDbLine
 10
5.2670931564
 20
7.5235545402
 30
0.0
 11
5.2670931564
 21
7.5575544141
 31
0.0
  0
LINE
  5
14A
330
1F
100
AcDbEntity
  8
0
  6
Continuous
 62
     7
370
    30
100
AcDbLine
 10
5.2811237143
 20
7.5235545402
 30
0.0
 11
5.2670931564
 21
7.5235545402
 31
0.0
  0
LINE
  5
14B
330
1F
100
AcDbEntity
  8
0
  6
Continuous
 62
     7
370
    30
100
AcDbLine
 10
5.2811237143
 20
7.5575544141
 30
0.0
 11
5.2670931564
 21
7.5575544141
 31
0.0
  0
SPLINE
  5
14C
330
1F
100
AcDbEntity
  8
0
  6
Continuous
 62
     7
370
    30
100
AcDbSpline
210
0.0
220
0.0
230
1.0
 70
     8
 71
     3
 72
     9
 73
     5
 74
     0
 42
0.00000001
 43
0.00000001
 40
0.0
 40
0.0
 40
0.0
 40
0.0
 40
0.5000333005036302
 40
1.0
 40
1.0
 40
1.0
 40
1.0
 10
5.267093156397922
 20
7.523554540154238
 30
0.0
 10
5.266822707127017
 20
7.523491533260985
 30
0.0
 10
5.266281844607193
 20
7.523365527866566
 30
0.0
 10
5.266156270712067
 20
7.522824687310417
 30
0.0
 10
5.266093487946177
 20
7.522554285042603
 30
0.0
  0
LINE
  5
14D
330
1F
100
AcDbEntity
  8
0
  6
Continuous
 62
     7
370
    30
100
AcDbLine
 10
5.2660934879
 20
7.522554285
 30
0.0
 11
5.2320930274
 21
7.522554285
 31
0.0
  0
SPLINE
  5
14E
330
1F
100
AcDbEntity
  8
0
  6
Continuous
 62
     7
370
    30
100
AcDbSpline
210
0.0
220
0.0
230
1.0
 70
     8
 71
     3
 72
    11
 73
     7
 74
     0
 42
0.00000001
 43
0.00000001
 40
0.0
 40
0.0
 40
0.0
 40
0.0
 40
0.2499904151840867
 40
0.5000013668002092
 40
0.749997059832284
 40
1.0
 40
1.0
 40
1.0
 40
1.0
 10
5.267093156397922
 20
7.557554414051459
 30
0.0
 10
5.262507043233986
 20
7.557028334840295
 30
0.0
 10
5.253334440162062
 20
7.555976133201148
 30
0.0
 10
5.241765157676233
 20
7.547882639859322
 30
0.0
 10
5.233671868030886
 20
7.536313088939745
 30
0.0
 10
5.23261931268836
 20
7.527140597324633
 30
0.0
 10
5.232093027389066
 20
7.522554285042603
 30
0.0
  0
SPLINE
  5
14F
330
1F
100
AcDbEntity
  8
0
  6
Continuous
 62
     7
370
    30
100
AcDbSpline
210
0.0
220
0.0
230
1.0
 70
     8
 71
     3
 72
    11
 73
     7
 74
     0
 42
0.00000001
 43
0.00000001
 40
0.0
 40
0.0
 40
0.0
 40
0.0
 40
0.2499979057635589
 40
0.4999996563587986
 40
0.7499987032856615
 40
1.0
 40
1.0
 40
1.0
 40
1.0
 10
23.23712378507066
 20
7.557554414051459
 30
0.0
 10
23.24171008628531
 20
7.557028401967779
 30
0.0
 10
23.25088275924943
 20
7.555976369710634
 30
0.0
 10
23.26245161273427
 20
7.547882311701001
 30
0.0
 10
23.27054546034358
 20
7.536313270231142
 30
0.0
 10
23.2715976634794
 20
7.527140627196439
 30
0.0
 10
23.27212376741454
 20
7.522554285042603
 30
0.0
  0
LINE
  5
150
330
1F
100
AcDbEntity
  8
0
  6
Continuous
 62
     7
370
    30
100
AcDbLine
 10
23.2381237469
 20
7.522554285
 30
0.0
 11
23.2721237674
 21
7.522554285
 31
0.0
  0
SPLINE
  5
151
330
1F
100
AcDbEntity
  8
0
  6
Continuous
 62
     7
370
    30
100
AcDbSpline
210
0.0
220
0.0
230
1.0
 70
     8
 71
     3
 72
     9
 73
     5
 74
     0
 42
0.00000001
 43
0.00000001
 40
0.0
 40
0.0
 40
0.0
 40
0.0
 40
0.50001385724275
 40
1.0
 40
1.0
 40
1.0
 40
1.0
 10
23.23712378507066
 20
7.523554540154238
 30
0.0
 10
23.23739399044172
 20
7.523491527330598
 30
0.0
 10
23.23793438620705
 20
7.523365505175961
 30
0.0
 10
23.23806062780349
 20
7.522824686757553
 30
0.0
 10
23.23812374685235
 20
7.522554285042603
 30
0.0
  0
LINE
  5
152
330
1F
100
AcDbEntity
  8
0
  6
Continuous
 62
     7
370
    30
100
AcDbLine
 10
5.2320930274
 20
7.522554285
 30
0.0
 11
5.2320930274
 21
7.5035541312
 31
0.0
  0
LINE
  5
153
330
1F
100
AcDbEntity
  8
0
  6
Continuous
 62
     7
370
    30
100
AcDbLine
 10
5.2660934879
 20
7.522554285
 30
0.0
 11
5.2660934879
 21
7.5084310349
 31
0.0
  0
LINE
  5
154
330
1F
100
AcDbEntity
  8
0
  6
Continuous
 62
     7
370
    30
100
AcDbLine
 10
23.2721237674
 20
7.522554285
 30
0.0
 11
23.2721237674
 21
7.5035541312
 31
0.0
  0
LINE
  5
155
330
1F
100
AcDbEntity
  8
0
  6
Continuous
 62
     7
370
    30
100
AcDbLine
 10
23.2381237469
 20
7.522554285
 30
0.0
 11
23.2381237469
 21
7.5084310349
 31
0.0
  0
LINE
  5
156
330
1F
100
AcDbEntity
  8
0
  6
Continuous
 62
     7
370
    30
100
AcDbLine
 10
11.1891079448
 20
3.9363281934
 30
0.0
 11
11.1891079448
 21
3.9365992303
 31
0.0
  0
LINE
  5
157
330
1F
100
AcDbEntity
  8
0
  6
Continuous
 62
     7
370
    30
100
AcDbLine
 10
11.1891079448
 20
3.9365992303
 30
0.0
 11
11.3150403567
 21
3.9365992303
 31
0.0
  0
LINE
  5
158
330
1F
100
AcDbEntity
  8
0
  6
Continuous
 62
     7
370
    30
100
AcDbLine
 10
17.1891083123
 20
3.9363281934
 30
0.0
 11
17.1891083123
 21
3.9365992303
 31
0.0
  0
LINE
  5
159
330
1F
100
AcDbEntity
  8
0
  6
Continuous
 62
     7
370
    30
100
AcDbLine
 10
17.1891083123
 20
3.9365992303
 30
0.0
 11
17.3150407241
 21
3.9365992303
 31
0.0
  0
ARC
  5
15A
330
1F
100
AcDbEntity
  8
0
  6
Continuous
 62
     7
370
    30
100
AcDbCircle
 10
11.2521084039
 20
33.6885697607
 30
0.0
 40
0.4375000000000099
100
AcDbArc
 50
278.2793756981
 51
81.7206243019
  0
LINE
  5
15B
330
1F
100
AcDbEntity
  8
0
  6
Continuous
 62
     7
370
    30
100
AcDbLine
 10
11.3151084092
 20
34.0585104594
 30
0.0
 11
11.3151084092
 21
34.1215095183
 31
0.0
  0
LINE
  5
15C
330
1F
100
AcDbEntity
  8
0
  6
Continuous
 62
     7
370
    30
100
AcDbLine
 10
11.1891079448
 20
34.0585104594
 30
0.0
 11
11.3151084092
 21
34.0585104594
 31
0.0
  0
LINE
  5
15D
330
1F
100
AcDbEntity
  8
0
  6
Continuous
 62
     7
370
    30
100
AcDbLine
 10
11.1891079448
 20
34.1215095183
 30
0.0
 11
11.1891079448
 21
34.0585104594
 31
0.0
  0
ARC
  5
15E
330
1F
100
AcDbEntity
  8
0
  6
Continuous
 62
     7
370
    30
100
AcDbCircle
 10
11.2521084039
 20
33.6885697607
 30
0.0
 40
0.4374999999999966
100
AcDbArc
 50
98.2793756981
 51
261.7206243019
  0
LINE
  5
15F
330
1F
100
AcDbEntity
  8
0
  6
Continuous
 62
     7
370
    30
100
AcDbLine
 10
11.1891079448
 20
33.3183580497
 30
0.0
 11
11.1891079448
 21
33.2556300277
 31
0.0
  0
LINE
  5
160
330
1F
100
AcDbEntity
  8
0
  6
Continuous
 62
     7
370
    30
100
AcDbLine
 10
11.3151084092
 20
33.3186290866
 30
0.0
 11
11.1891079448
 21
33.3183580497
 31
0.0
  0
LINE
  5
161
330
1F
100
AcDbEntity
  8
0
  6
Continuous
 62
     7
370
    30
100
AcDbLine
 10
11.3151084092
 20
33.2556300277
 30
0.0
 11
11.3151084092
 21
33.3186290866
 31
0.0
  0
ARC
  5
162
330
1F
100
AcDbEntity
  8
0
  6
Continuous
 62
     7
370
    30
100
AcDbCircle
 10
17.2521084039
 20
33.6885697607
 30
0.0
 40
0.4375000000000031
100
AcDbArc
 50
278.2793756981
 51
81.7206243019
  0
LINE
  5
163
330
1F
100
AcDbEntity
  8
0
  6
Continuous
 62
     7
370
    30
100
AcDbLine
 10
17.3151084834
 20
34.0585104594
 30
0.0
 11
17.3151084834
 21
34.1215095183
 31
0.0
  0
LINE
  5
164
330
1F
100
AcDbEntity
  8
0
  6
Continuous
 62
     7
370
    30
100
AcDbLine
 10
17.1891083123
 20
34.0585104594
 30
0.0
 11
17.3151084834
 21
34.0585104594
 31
0.0
  0
LINE
  5
165
330
1F
100
AcDbEntity
  8
0
  6
Continuous
 62
     7
370
    30
100
AcDbLine
 10
17.1891083123
 20
34.1215095183
 30
0.0
 11
17.1891083123
 21
34.0585104594
 31
0.0
  0
ARC
  5
166
330
1F
100
AcDbEntity
  8
0
  6
Continuous
 62
     7
370
    30
100
AcDbCircle
 10
17.2521084039
 20
33.6885697607
 30
0.0
 40
0.4375000000000036
100
AcDbArc
 50
98.2793756981
 51
261.7206243019
  0
LINE
  5
167
330
1F
100
AcDbEntity
  8
0
  6
Continuous
 62
     7
370
    30
100
AcDbLine
 10
17.1891083123
 20
33.3183580497
 30
0.0
 11
17.1891083123
 21
33.2556300277
 31
0.0
  0
LINE
  5
168
330
1F
100
AcDbEntity
  8
0
  6
Continuous
 62
     7
370
    30
100
AcDbLine
 10
17.3151084834
 20
33.3186290866
 30
0.0
 11
17.1891083123
 21
33.3183580497
 31
0.0
  0
LINE
  5
169
330
1F
100
AcDbEntity
  8
0
  6
Continuous
 62
     7
370
    30
100
AcDbLine
 10
17.3151084834
 20
33.2556300277
 30
0.0
 11
17.3151084834
 21
33.3186290866
 31
0.0
  0
LINE
  5
16A
330
1F
100
AcDbEntity
  8
0
  6
Continuous
 62
     7
370
    30
100
AcDbLine
 10
5.3341237421
 20
36.7820707833
 30
0.0
 11
5.2670931564
 21
36.7820707833
 31
0.0
  0
LINE
  5
16B
330
1F
100
AcDbEntity
  8
0
  6
Continuous
 62
     7
370
    30
100
AcDbLine
 10
23.1471237781
 20
36.7820707833
 30
0.0
 11
23.2371237851
 21
36.7820707833
 31
0.0
  0
LINE
  5
16C
330
1F
100
AcDbEntity
  8
0
  6
Continuous
 62
     7
370
    30
100
AcDbLine
 10
23.2371237851
 20
36.7820707833
 30
0.0
 11
23.2371237851
 21
30.4865847893
 31
0.0
  0
LINE
  5
16D
330
1F
100
AcDbEntity
  8
0
  6
Continuous
 62
     7
370
    30
100
AcDbLine
 10
23.2371237851
 20
30.4865847893
 30
0.0
 11
23.2230930805
 21
30.4725542314
 31
0.0
  0
LINE
  5
16E
330
1F
100
AcDbEntity
  8
0
  6
Continuous
 62
     7
370
    30
100
AcDbLine
 10
5.2811237143
 20
30.4725542314
 30
0.0
 11
23.2230930805
 21
30.4725542314
 31
0.0
  0
LINE
  5
16F
330
1F
100
AcDbEntity
  8
0
  6
Continuous
 62
     7
370
    30
100
AcDbLine
 10
5.2670931564
 20
30.4865847893
 30
0.0
 11
5.2811237143
 21
30.4725542314
 31
0.0
  0
LINE
  5
170
330
1F
100
AcDbEntity
  8
0
  6
Continuous
 62
     7
370
    30
100
AcDbLine
 10
5.2670931564
 20
30.4865847893
 30
0.0
 11
5.2670931564
 21
36.7820707833
 31
0.0
  0
SPLINE
  5
171
330
1F
100
AcDbEntity
  8
0
  6
Continuous
 62
     7
370
    30
100
AcDbSpline
210
0.0
220
0.0
230
1.0
 70
     8
 71
     3
 72
    11
 73
     7
 74
     0
 42
0.00000001
 43
0.00000001
 40
0.0
 40
0.0
 40
0.0
 40
0.0
 40
0.2500035412211267
 40
0.4999998353172792
 40
0.7500079447205232
 40
1.0
 40
1.0
 40
1.0
 40
1.0
 10
5.232093027389066
 20
30.49155497185332
 30
0.0
 10
5.232619318084665
 20
30.49114079506059
 30
0.0
 10
5.233671884219713
 20
30.4903124534813
 30
0.0
 10
5.241765055766707
 20
30.48906983593612
 30
0.0
 10
5.253334584810319
 20
30.48782738772308
 30
0.0
 10
5.262507064039434
 20
30.48699897988765
 30
0.0
 10
5.267093156397922
 20
30.48658478926929
 30
0.0
  0
LINE
  5
172
330
1F
100
AcDbEntity
  8
0
  6
Continuous
 62
     7
370
    30
100
AcDbLine
 10
5.2320930274
 20
30.4915549719
 30
0.0
 11
5.2320930274
 21
36.7820707833
 31
0.0
  0
LINE
  5
173
330
1F
100
AcDbEntity
  8
0
  6
Continuous
 62
     7
370
    30
100
AcDbLine
 10
5.2670931564
 20
36.7820707833
 30
0.0
 11
5.2320930274
 21
36.7820707833
 31
0.0
  0
LINE
  5
174
330
1F
100
AcDbEntity
  8
0
  6
Continuous
 62
     7
370
    30
100
AcDbLine
 10
23.2371237851
 20
36.7820707833
 30
0.0
 11
23.2721237674
 21
36.7820707833
 31
0.0
  0
LINE
  5
175
330
1F
100
AcDbEntity
  8
0
  6
Continuous
 62
     7
370
    30
100
AcDbLine
 10
23.2721237674
 20
36.7820707833
 30
0.0
 11
23.2721237674
 21
30.4915549719
 31
0.0
  0
SPLINE
  5
176
330
1F
100
AcDbEntity
  8
0
  6
Continuous
 62
     7
370
    30
100
AcDbSpline
210
0.0
220
0.0
230
1.0
 70
     8
 71
     3
 72
    11
 73
     7
 74
     0
 42
0.00000001
 43
0.00000001
 40
0.0
 40
0.0
 40
0.0
 40
0.0
 40
0.2500018978079762
 40
0.5000015458317879
 40
0.7500004541482654
 40
1.0
 40
1.0
 40
1.0
 40
1.0
 10
23.27212376741454
 20
30.49155497185332
 30
0.0
 10
23.27159765808306
 20
30.49114079086331
 30
0.0
 10
23.27054544415457
 20
30.49031243261051
 30
0.0
 10
23.26245171464921
 20
30.48906988226487
 30
0.0
 10
23.25088261459891
 20
30.48782733294739
 30
0.0
 10
23.24171006547864
 20
30.4869989708474
 30
0.0
 10
23.23712378507066
 20
30.48658478926929
 30
0.0
  0
LINE
  5
177
330
1F
100
AcDbEntity
  8
0
  6
Continuous
 62
     7
370
    30
100
AcDbLine
 10
5.2811237143
 20
30.4375541023
 30
0.0
 11
23.2230930805
 21
30.4375541023
 31
0.0
  0
SPLINE
  5
178
330
1F
100
AcDbEntity
  8
0
  6
Continuous
 62
     7
370
    30
100
AcDbSpline
210
0.0
220
0.0
230
1.0
 70
     8
 71
     3
 72
    11
 73
     7
 74
     0
 42
0.00000001
 43
0.00000001
 40
0.0
 40
0.0
 40
0.0
 40
0.0
 40
0.2499805432174849
 40
0.4999896452616939
 40
0.7500031068492867
 40
1.0
 40
1.0
 40
1.0
 40
1.0
 10
5.283608805607733
 20
30.44780539725214
 30
0.0
 10
5.283401373616849
 20
30.44627674762301
 30
0.0
 10
5.282986485937169
 20
30.4432192737254
 30
0.0
 10
5.282366758254131
 20
30.44003777925044
 30
0.0
 10
5.281744005698247
 20
30.43794169642736
 30
0.0
 10
5.281330473542266
 20
30.43768329751676
 30
0.0
 10
5.281123714315719
 20
30.43755410234264
 30
0.0
  0
SPLINE
  5
179
330
1F
100
AcDbEntity
  8
0
  6
Continuous
 62
     7
370
    30
100
AcDbSpline
210
0.0
220
0.0
230
1.0
 70
     8
 71
     3
 72
    11
 73
     7
 74
     0
 42
0.00000001
 43
0.00000001
 40
0.0
 40
0.0
 40
0.0
 40
0.0
 40
0.2499770323632395
 40
0.4999845390298147
 40
0.749974496939794
 40
1.0
 40
1.0
 40
1.0
 40
1.0
 10
5.281123714315719
 20
30.47255423135149
 30
0.0
 10
5.281330478364358
 20
30.47026275664683
 30
0.0
 10
5.281744031667911
 20
30.46567952788744
 30
0.0
 10
5.282366724095358
 20
30.45908599727851
 30
0.0
 10
5.282986584641783
 20
30.45294168348681
 30
0.0
 10
5.283401388789869
 20
30.44951757380151
 30
0.0
 10
5.283608805607733
 20
30.44780539725214
 30
0.0
  0
SPLINE
  5
17A
330
1F
100
AcDbEntity
  8
0
  6
Continuous
 62
     7
370
    30
100
AcDbSpline
210
0.0
220
0.0
230
1.0
 70
     8
 71
     3
 72
    11
 73
     7
 74
     0
 42
0.00000001
 43
0.00000001
 40
0.0
 40
0.0
 40
0.0
 40
0.0
 40
0.249979072162999
 40
0.4999845389645191
 40
0.7499765366060906
 40
1.0
 40
1.0
 40
1.0
 40
1.0
 10
23.22309308048789
 20
30.47255423135149
 30
0.0
 10
23.22288599814485
 20
30.47026276907606
 30
0.0
 10
23.22247181159348
 20
30.46567960257567
 30
0.0
 10
23.22185081725326
 20
30.45908591908178
 30
0.0
 10
23.22122947859548
 20
30.45294174836777
 30
0.0
 10
23.22081545434381
 20
30.44951758611769
 30
0.0
 10
23.22060842919079
 20
30.44780539725214
 30
0.0
  0
SPLINE
  5
17B
330
1F
100
AcDbEntity
  8
0
  6
Continuous
 62
     7
370
    30
100
AcDbSpline
210
0.0
220
0.0
230
1.0
 70
     8
 71
     3
 72
    11
 73
     7
 74
     0
 42
0.00000001
 43
0.00000001
 40
0.0
 40
0.0
 40
0.0
 40
0.0
 40
0.2499785032169755
 40
0.4999896450476948
 40
0.7500010669984095
 40
0.9999999999999999
 40
0.9999999999999999
 40
0.9999999999999999
 40
0.9999999999999999
 10
23.22060842919079
 20
30.44780539725214
 30
0.0
 10
23.2208154695533
 20
30.44627674235812
 30
0.0
 10
23.22122957731068
 20
30.44321923298023
 30
0.0
 10
23.22185078312263
 20
30.44003781164533
 30
0.0
 10
23.22247183755097
 20
30.43794167935886
 30
0.0
 10
23.22288600295717
 20
30.4376832925301
 30
0.0
 10
23.22309308048789
 20
30.43755410234264
 30
0.0
  0
LINE
  5
17C
330
1F
100
AcDbEntity
  8
0
  6
Continuous
 62
     7
370
    30
100
AcDbLine
 10
5.2811237143
 20
30.4375541023
 30
0.0
 11
5.2811237143
 21
30.4715545629
 31
0.0
  0
LINE
  5
17D
330
1F
100
AcDbEntity
  8
0
  6
Continuous
 62
     7
370
    30
100
AcDbLine
 10
23.2230930805
 20
30.4375541023
 30
0.0
 11
23.2230930805
 21
30.4715545629
 31
0.0
  0
LINE
  5
17E
330
1F
100
AcDbEntity
  8
0
  6
Continuous
 62
     7
370
    30
100
AcDbLine
 10
23.2230930805
 20
30.4375541023
 30
0.0
 11
23.2371237851
 21
30.4375541023
 31
0.0
  0
LINE
  5
17F
330
1F
100
AcDbEntity
  8
0
  6
Continuous
 62
     7
370
    30
100
AcDbLine
 10
23.2230930805
 20
30.4715545629
 30
0.0
 11
23.2371237851
 21
30.4715545629
 31
0.0
  0
LINE
  5
180
330
1F
100
AcDbEntity
  8
0
  6
Continuous
 62
     7
370
    30
100
AcDbLine
 10
23.2371237851
 20
30.4715545629
 30
0.0
 11
23.2371237851
 21
30.4375541023
 31
0.0
  0
LINE
  5
181
330
1F
100
AcDbEntity
  8
0
  6
Continuous
 62
     7
370
    30
100
AcDbLine
 10
5.2811237143
 20
30.4375541023
 30
0.0
 11
5.2670931564
 21
30.4375541023
 31
0.0
  0
LINE
  5
182
330
1F
100
AcDbEntity
  8
0
  6
Continuous
 62
     7
370
    30
100
AcDbLine
 10
5.2670931564
 20
30.4715545629
 30
0.0
 11
5.2670931564
 21
30.4375541023
 31
0.0
  0
LINE
  5
183
330
1F
100
AcDbEntity
  8
0
  6
Continuous
 62
     7
370
    30
100
AcDbLine
 10
5.2811237143
 20
30.4715545629
 30
0.0
 11
5.2670931564
 21
30.4715545629
 31
0.0
  0
LINE
  5
184
330
1F
100
AcDbEntity
  8
0
  6
Continuous
 62
     7
370
    30
100
AcDbLine
 10
5.2660934879
 20
30.4725542314
 30
0.0
 11
5.2320930274
 21
30.4725542314
 31
0.0
  0
SPLINE
  5
185
330
1F
100
AcDbEntity
  8
0
  6
Continuous
 62
     7
370
    30
100
AcDbSpline
210
0.0
220
0.0
230
1.0
 70
     8
 71
     3
 72
     9
 73
     5
 74
     0
 42
0.00000001
 43
0.00000001
 40
0.0
 40
0.0
 40
0.0
 40
0.0
 40
0.5000269558101353
 40
1.0
 40
1.0
 40
1.0
 40
1.0
 10
5.267093156397922
 20
30.47155456289975
 30
0.0
 10
5.266822706948202
 20
30.47161732728402
 30
0.0
 10
5.266281837207929
 20
30.47174284928546
 30
0.0
 10
5.266156268776895
 20
30.47228378038364
 30
0.0
 10
5.266093487946177
 20
30.47255423135149
 30
0.0
  0
SPLINE
  5
186
330
1F
100
AcDbEntity
  8
0
  6
Continuous
 62
     7
370
    30
100
AcDbSpline
210
0.0
220
0.0
230
1.0
 70
     8
 71
     3
 72
    11
 73
     7
 74
     0
 42
0.00000001
 43
0.00000001
 40
0.0
 40
0.0
 40
0.0
 40
0.0
 40
0.2499938506750823
 40
0.5000002422554727
 40
0.7500061493249176
 40
1.0
 40
1.0
 40
1.0
 40
1.0
 10
5.267093156397922
 20
30.43755410234264
 30
0.0
 10
5.262507086988627
 20
30.43808046904739
 30
0.0
 10
5.253334718110536
 20
30.43913322886202
 30
0.0
 10
5.241764763028349
 20
30.44722581236857
 30
0.0
 10
5.233672144652473
 20
30.45879581004704
 30
0.0
 10
5.232619391348589
 20
30.46796816464039
 30
0.0
 10
5.232093027389066
 20
30.47255423135149
 30
0.0
  0
SPLINE
  5
187
330
1F
100
AcDbEntity
  8
0
  6
Continuous
 62
     7
370
    30
100
AcDbSpline
210
0.0
220
0.0
230
1.0
 70
     8
 71
     3
 72
     9
 73
     5
 74
     0
 42
0.00000001
 43
0.00000001
 40
0.0
 40
0.0
 40
0.0
 40
0.0
 40
0.5000075119650377
 40
1.0
 40
1.0
 40
1.0
 40
1.0
 10
23.23712378507066
 20
30.47155456289975
 30
0.0
 10
23.23739399062324
 20
30.47161733321625
 30
0.0
 10
23.23793439360944
 20
30.47174287196317
 30
0.0
 10
23.2380606297369
 20
30.47228378093091
 30
0.0
 10
23.23812374685235
 20
30.47255423135149
 30
0.0
  0
LINE
  5
188
330
1F
100
AcDbEntity
  8
0
  6
Continuous
 62
     7
370
    30
100
AcDbLine
 10
23.2381237469
 20
30.4725542314
 30
0.0
 11
23.2721237674
 21
30.4725542314
 31
0.0
  0
SPLINE
  5
189
330
1F
100
AcDbEntity
  8
0
  6
Continuous
 62
     7
370
    30
100
AcDbSpline
210
0.0
220
0.0
230
1.0
 70
     8
 71
     3
 72
    11
 73
     7
 74
     0
 42
0.00000001
 43
0.00000001
 40
0.0
 40
0.0
 40
0.0
 40
0.0
 40
0.2500013413403741
 40
0.4999985317615918
 40
0.7500077927139543
 40
1.0
 40
1.0
 40
1.0
 40
1.0
 10
23.23712378507066
 20
30.43755410234264
 30
0.0
 10
23.24171004252777
 20
30.43808040192356
 30
0.0
 10
23.25088248129366
 20
30.43913299234693
 30
0.0
 10
23.26245200738385
 20
30.44722614052935
 30
0.0
 10
23.27054518372413
 20
30.45879562876076
 30
0.0
 10
23.2715975848159
 20
30.46796813477085
 30
0.0
 10
23.27212376741454
 20
30.47255423135149
 30
0.0
  0
LINE
  5
18A
330
1F
100
AcDbEntity
  8
0
  6
Continuous
 62
     7
370
    30
100
AcDbLine
 10
5.2320930274
 20
30.4725542314
 30
0.0
 11
5.2320930274
 21
30.4915549719
 31
0.0
  0
LINE
  5
18B
330
1F
100
AcDbEntity
  8
0
  6
Continuous
 62
     7
370
    30
100
AcDbLine
 10
5.2660934879
 20
30.4725542314
 30
0.0
 11
5.2660934879
 21
30.4866774815
 31
0.0
  0
LINE
  5
18C
330
1F
100
AcDbEntity
  8
0
  6
Continuous
 62
     7
370
    30
100
AcDbLine
 10
23.2721237674
 20
30.4725542314
 30
0.0
 11
23.2721237674
 21
30.4915549719
 31
0.0
  0
LINE
  5
18D
330
1F
100
AcDbEntity
  8
0
  6
Continuous
 62
     7
370
    30
100
AcDbLine
 10
23.2381237469
 20
30.4725542314
 30
0.0
 11
23.2381237469
 21
30.4866774815
 31
0.0
  0
LINE
  5
18E
330
1F
100
AcDbEntity
  8
0
  6
Continuous
 62
     7
370
    30
100
AcDbLine
 10
17.1891083123
 20
33.3183580497
 30
0.0
 11
17.1891083123
 21
33.3186290866
 31
0.0
  0
LINE
  5
18F
330
1F
100
AcDbEntity
  8
0
  6
Continuous
 62
     7
370
    30
100
AcDbLine
 10
17.1891083123
 20
33.3186290866
 30
0.0
 11
17.3150407241
 21
33.3186290866
 31
0.0
  0
LINE
  5
190
330
1F
100
AcDbEntity
  8
0
  6
Continuous
 62
     7
370
    30
100
AcDbLine
 10
11.1891079448
 20
33.3183580497
 30
0.0
 11
11.1891079448
 21
33.3186290866
 31
0.0
  0
LINE
  5
191
330
1F
100
AcDbEntity
  8
0
  6
Continuous
 62
     7
370
    30
100
AcDbLine
 10
11.1891079448
 20
33.3186290866
 30
0.0
 11
11.3150403567
 21
33.3186290866
 31
0.0
  0
LINE
  5
192
330
1F
100
AcDbEntity
  8
0
  6
Continuous
 62
     7
370
    30
100
AcDbLine
 10
5.3341237421
 20
1.459524059
 30
0.0
 11
5.3341237421
 21
1.0585232514
 31
0.0
  0
LINE
  5
193
330
1F
100
AcDbEntity
  8
0
  6
Continuous
 62
     7
370
    30
100
AcDbLine
 10
23.1471237781
 20
1.459524059
 30
0.0
 11
23.1471237781
 21
1.0585232514
 31
0.0
  0
LINE
  5
194
330
1F
100
AcDbEntity
  8
0
  6
Continuous
 62
     7
370
    30
100
AcDbLine
 10
23.1471237781
 20
1.0585232514
 30
0.0
 11
5.3341237421
 21
1.0585232514
 31
0.0
  0
LINE
  5
195
330
1F
100
AcDbEntity
  8
0
  6
Continuous
 62
     7
370
    30
100
AcDbLine
 10
5.3341237421
 20
1.459524059
 30
0.0
 11
23.1471237781
 21
1.459524059
 31
0.0
  0
LINE
  5
196
330
1F
100
AcDbEntity
  8
0
  6
Continuous
 62
     7
370
    30
100
AcDbLine
 10
23.1471237781
 20
1.0215237855
 30
0.0
 11
23.1471237781
 21
1.0585232514
 31
0.0
  0
LINE
  5
197
330
1F
100
AcDbEntity
  8
0
  6
Continuous
 62
     7
370
    30
100
AcDbLine
 10
23.1471237781
 20
1.0215237855
 30
0.0
 11
5.3341237421
 21
1.0215237855
 31
0.0
  0
LINE
  5
198
330
1F
100
AcDbEntity
  8
0
  6
Continuous
 62
     7
370
    30
100
AcDbLine
 10
5.3341237421
 20
1.0585232514
 30
0.0
 11
5.3341237421
 21
1.0215237855
 31
0.0
  0
LINE
  5
199
330
1F
100
AcDbEntity
  8
0
  6
Continuous
 62
     7
370
    30
100
AcDbLine
 10
5.3341237421
 20
36.936585265
 30
0.0
 11
23.1471237781
 21
36.936585265
 31
0.0
  0
LINE
  5
19A
330
1F
100
AcDbEntity
  8
0
  6
Continuous
 62
     7
370
    30
100
AcDbLine
 10
5.3341237421
 20
36.9735847309
 30
0.0
 11
5.3341237421
 21
36.936585265
 31
0.0
  0
LINE
  5
19B
330
1F
100
AcDbEntity
  8
0
  6
Continuous
 62
     7
370
    30
100
AcDbLine
 10
5.3341237421
 20
36.9735847309
 30
0.0
 11
23.1471237781
 21
36.9735847309
 31
0.0
  0
LINE
  5
19C
330
1F
100
AcDbEntity
  8
0
  6
Continuous
 62
     7
370
    30
100
AcDbLine
 10
23.1471237781
 20
36.936585265
 30
0.0
 11
23.1471237781
 21
36.9735847309
 31
0.0
  0
LINE
  5
19D
330
1F
100
AcDbEntity
  8
0
  6
Continuous
 62
     7
370
    30
100
AcDbLine
 10
5.3341237421
 20
36.5355856307
 30
0.0
 11
23.1471237781
 21
36.5355856307
 31
0.0
  0
LINE
  5
19E
330
1F
100
AcDbEntity
  8
0
  6
Continuous
 62
     7
370
    30
100
AcDbLine
 10
5.3341237421
 20
36.5355856307
 30
0.0
 11
5.3341237421
 21
36.936585265
 31
0.0
  0
LINE
  5
19F
330
1F
100
AcDbEntity
  8
0
  6
Continuous
 62
     7
370
    30
100
AcDbLine
 10
23.1471237781
 20
36.936585265
 30
0.0
 11
23.1471237781
 21
36.5355856307
 31
0.0
  0
LINE
  5
1A0
330
1F
100
AcDbEntity
  8
0
  6
Continuous
 62
     7
370
    30
100
AcDbLine
 10
5.3341237421
 20
1.1165544744
 30
0.0
 11
5.325123206
 21
1.1165544744
 31
0.0
  0
LINE
  5
1A1
330
1F
100
AcDbEntity
  8
0
  6
Continuous
 62
     7
370
    30
100
AcDbLine
 10
5.325123206
 20
1.1165544744
 30
0.0
 11
5.325123206
 21
1.2130389064
 31
0.0
  0
SPLINE
  5
1A2
330
1F
100
AcDbEntity
  8
0
  6
Continuous
 62
     7
370
    30
100
AcDbSpline
210
0.0
220
0.0
230
1.0
 70
     8
 71
     3
 72
     9
 73
     5
 74
     0
 42
0.00000001
 43
0.00000001
 40
0.0
 40
0.0
 40
0.0
 40
0.0
 40
0.4550840547787777
 40
1.0
 40
1.0
 40
1.0
 40
1.0
 10
5.334123742054876
 20
1.094677927085469
 30
0.0
 10
5.331699989077527
 20
1.097709704996881
 30
0.0
 10
5.3263740433497
 20
1.104371722440853
 30
0.0
 10
5.325564395858042
 20
1.11290449758464
 30
0.0
 10
5.325123206029836
 20
1.117554142817473
 30
0.0
  0
LINE
  5
1A3
330
1F
100
AcDbEntity
  8
0
  6
Continuous
 62
     7
370
    30
100
AcDbLine
 10
5.325123206
 20
36.8785552153
 30
0.0
 11
5.325123206
 21
36.7820707833
 31
0.0
  0
LINE
  5
1A4
330
1F
100
AcDbEntity
  8
0
  6
Continuous
 62
     7
370
    30
100
AcDbLine
 10
5.3341237421
 20
36.8785552153
 30
0.0
 11
5.325123206
 21
36.8785552153
 31
0.0
  0
SPLINE
  5
1A5
330
1F
100
AcDbEntity
  8
0
  6
Continuous
 62
     7
370
    30
100
AcDbSpline
210
0.0
220
0.0
230
1.0
 70
     8
 71
     3
 72
     9
 73
     5
 74
     0
 42
0.00000001
 43
0.00000001
 40
0.0
 40
0.0
 40
0.0
 40
0.0
 40
0.5448951612537015
 40
1.0
 40
1.0
 40
1.0
 40
1.0
 10
5.325123206029836
 20
36.8775555468964
 30
0.0
 10
5.325564470650567
 20
36.88220477382577
 30
0.0
 10
5.32637428628504
 20
36.89073710675872
 30
0.0
 10
5.331699988985959
 20
36.89739881407478
 30
0.0
 10
5.334123742054876
 20
36.90043058930863
 30
0.0
  0
LINE
  5
1A6
330
1F
100
AcDbEntity
  8
0
  6
Continuous
 62
     8
370
    30
100
AcDbLine
 10
3.6398405946
 20
13.4005836615
 30
0.0
 11
3.6398405946
 21
12.9701096478
 31
0.0
  0
LINE
  5
1A7
330
1F
100
AcDbEntity
  8
0
  6
Continuous
 62
     8
370
    30
100
AcDbLine
 10
3.5953764682
 20
12.9704942033
 30
0.0
 11
3.5953764682
 21
13.4029103547
 31
0.0
  0
LINE
  5
1A8
330
1F
100
AcDbEntity
  8
0
  6
Continuous
 62
     8
370
    30
100
AcDbLine
 10
3.6398405946
 20
14.1506767297
 30
0.0
 11
3.6398405946
 21
13.7434939935
 31
0.0
  0
LINE
  5
1A9
330
1F
100
AcDbEntity
  8
0
  6
Continuous
 62
     8
370
    30
100
AcDbLine
 10
3.5953764682
 20
13.7434939935
 30
0.0
 11
3.5953764682
 21
14.1527400126
 31
0.0
  0
LINE
  5
1AA
330
1F
100
AcDbEntity
  8
0
  6
Continuous
 62
     8
370
    30
100
AcDbLine
 10
45.9006073279
 20
30.5125538759
 30
0.0
 11
23.2721237674
 21
30.5125538759
 31
0.0
  0
LINE
  5
1AB
330
1F
100
AcDbEntity
  8
0
  6
Continuous
 62
     8
370
    30
100
AcDbLine
 10
5.2320930274
 20
30.5125538759
 30
0.0
 11
4.2906083302
 21
30.5125538759
 31
0.0
  0
LINE
  5
1AC
330
1F
100
AcDbEntity
  8
0
  6
Continuous
 62
     8
370
    30
100
AcDbLine
 10
4.2906083302
 20
7.5275543873
 30
0.0
 11
5.2330880026
 21
7.5275543873
 31
0.0
  0
LINE
  5
1AD
330
1F
100
AcDbEntity
  8
0
  6
Continuous
 62
     8
370
    30
100
AcDbLine
 10
23.2711292322
 20
7.5275543873
 30
0.0
 11
45.9006073279
 21
7.5275543873
 31
0.0
  0
LINE
  5
1AE
330
1F
100
AcDbEntity
  8
FORMAT
100
AcDbLine
 10
52.2857500014
 20
19.9619264326
 30
0.0
 11
52.2857500014
 21
17.8475019984
 31
0.0
  0
LINE
  5
1AF
330
1F
100
AcDbEntity
  8
FORMAT
100
AcDbLine
 10
52.2857500014
 20
17.8475019984
 30
0.0
 11
55.931542725
 21
17.8475019984
 31
0.0
  0
LINE
  5
1B0
330
1F
100
AcDbEntity
  8
FORMAT
100
AcDbLine
 10
55.931542725
 20
17.8475019984
 30
0.0
 11
55.931542725
 21
16.0854816366
 31
0.0
  0
LINE
  5
1B1
330
1F
100
AcDbEntity
  8
FORMAT
100
AcDbLine
 10
55.931542725
 20
16.0854816366
 30
0.0
 11
58.750775304
 21
18.9047142155
 31
0.0
  0
LINE
  5
1B2
330
1F
100
AcDbEntity
  8
FORMAT
100
AcDbLine
 10
58.750775304
 20
18.9047142155
 30
0.0
 11
55.931542725
 21
21.7239467945
 31
0.0
  0
LINE
  5
1B3
330
1F
100
AcDbEntity
  8
FORMAT
100
AcDbLine
 10
55.931542725
 20
21.7239467945
 30
0.0
 11
55.931542725
 21
19.9619264326
 31
0.0
  0
LINE
  5
1B4
330
1F
100
AcDbEntity
  8
FORMAT
100
AcDbLine
 10
55.931542725
 20
19.9619264326
 30
0.0
 11
52.2857500014
 21
19.9619264326
 31
0.0
  0
ENDSEC
  0
SECTION
  2
OBJECTS
  0
DICTIONARY
  5
C
330
0
100
AcDbDictionary
281
     1
  3
ACAD_GROUP
350
D
  3
ACAD_LAYOUT
350
1A
  3
ACAD_MLINESTYLE
350
17
  3
ACAD_PLOTSETTINGS
350
19
  3
ACAD_PLOTSTYLENAME
350
E
  3
ACAD_SCALELIST
350
4C
  3
AcDbVariableDictionary
350
1B5
  0
DICTIONARY
  5
D
102
{ACAD_REACTORS
330
C
102
}
330
C
100
AcDbDictionary
281
     1
  0
DICTIONARY
  5
1A
102
{ACAD_REACTORS
330
C
102
}
330
C
100
AcDbDictionary
281
     1
  3
Layout1
350
1E
  3
Layout2
350
26
  3
Model
350
22
  0
DICTIONARY
  5
17
102
{ACAD_REACTORS
330
C
102
}
330
C
100
AcDbDictionary
281
     1
  3
Standard
350
18
  0
DICTIONARY
  5
19
102
{ACAD_REACTORS
330
C
102
}
330
C
100
AcDbDictionary
281
     1
  0
ACDBDICTIONARYWDFLT
  5
E
102
{ACAD_REACTORS
330
C
102
}
330
C
100
AcDbDictionary
281
     1
  3
Normal
350
F
100
AcDbDictionaryWithDefault
340
F
  0
DICTIONARY
  5
4C
102
{ACAD_REACTORS
330
C
102
}
330
C
100
AcDbDictionary
281
     1
  3
A0
350
4D
  3
A1
350
4E
  3
A2
350
4F
  3
A3
350
50
  3
A4
350
51
  3
A5
350
52
  3
A6
350
53
  3
A7
350
54
  3
A8
350
55
  3
A9
350
56
  3
B0
350
57
  3
B1
350
58
  3
B2
350
59
  3
B3
350
5A
  3
B4
350
5B
  3
B5
350
5C
  3
B6
350
5D
  3
B7
350
5E
  3
B8
350
5F
  3
B9
350
60
  3
C0
350
61
  3
C1
350
62
  3
C2
350
63
  3
C3
350
64
  3
C4
350
65
  3
C5
350
66
  3
C6
350
67
  3
C7
350
68
  3
C8
350
69
  3
C9
350
6A
  3
D0
350
6B
  3
D1
350
6C
  3
D2
350
6D
  0
DICTIONARY
  5
1B5
102
{ACAD_REACTORS
330
C
102
}
330
C
100
AcDbDictionary
281
     1
  3
CANNOSCALE
350
1B6
  0
LAYOUT
  5
1E
102
{ACAD_REACTORS
330
1A
102
}
330
1A
100
AcDbPlotSettings
  1

  2
none_device
  4

  6

 40
0.0
 41
0.0
 42
0.0
 43
0.0
 44
0.0
 45
0.0
 46
0.0
 47
0.0
 48
0.0
 49
0.0
140
0.0
141
0.0
142
1.0
143
1.0
 70
   688
 72
     0
 73
     0
 74
     5
  7

 75
    16
147
1.0
148
0.0
149
0.0
100
AcDbLayout
  1
Layout1
 70
     1
 71
     1
 10
0.0
 20
0.0
 11
12.0
 21
9.0
 12
0.0
 22
0.0
 32
0.0
 14
1.0000000000E+20
 24
1.0000000000E+20
 34
1.0000000000E+20
 15
-1.0000000000E+20
 25
-1.0000000000E+20
 35
-1.0000000000E+20
146
0.0
 13
0.0
 23
0.0
 33
0.0
 16
1.0
 26
0.0
 36
0.0
 17
0.0
 27
1.0
 37
0.0
 76
     0
330
1B
  0
LAYOUT
  5
26
102
{ACAD_REACTORS
330
1A
102
}
330
1A
100
AcDbPlotSettings
  1

  2
none_device
  4

  6

 40
0.0
 41
0.0
 42
0.0
 43
0.0
 44
0.0
 45
0.0
 46
0.0
 47
0.0
 48
0.0
 49
0.0
140
0.0
141
0.0
142
1.0
143
1.0
 70
   688
 72
     0
 73
     0
 74
     5
  7

 75
    16
147
1.0
148
0.0
149
0.0
100
AcDbLayout
  1
Layout2
 70
     1
 71
     2
 10
0.0
 20
0.0
 11
0.0
 21
0.0
 12
0.0
 22
0.0
 32
0.0
 14
0.0
 24
0.0
 34
0.0
 15
0.0
 25
0.0
 35
0.0
146
0.0
 13
0.0
 23
0.0
 33
0.0
 16
1.0
 26
0.0
 36
0.0
 17
0.0
 27
1.0
 37
0.0
 76
     0
330
23
  0
LAYOUT
  5
22
102
{ACAD_REACTORS
330
1A
102
}
330
1A
100
AcDbPlotSettings
  1

  2
none_device
  4

  6

 40
0.0
 41
0.0
 42
0.0
 43
0.0
 44
0.0
 45
0.0
 46
0.0
 47
0.0
 48
0.0
 49
0.0
140
0.0
141
0.0
142
1.0
143
1.0
 70
  1712
 72
     0
 73
     0
 74
     0
  7

 75
     0
147
1.0
148
0.0
149
0.0
100
AcDbLayout
  1
Model
 70
     1
 71
     0
 10
0.0
 20
0.0
 11
60.0
 21
38.0
 12
0.0
 22
0.0
 32
0.0
 14
0.0
 24
0.0
 34
0.0
 15
60.0
 25
38.0
 35
0.0
146
0.0
 13
0.0
 23
0.0
 33
0.0
 16
1.0
 26
0.0
 36
0.0
 17
0.0
 27
1.0
 37
0.0
 76
     0
330
1F
331
29
  0
MLINESTYLE
  5
18
102
{ACAD_REACTORS
330
17
102
}
330
17
100
AcDbMlineStyle
  2
Standard
 70
     0
  3

 62
   256
 51
90.0
 52
90.0
 71
     2
 49
0.5
 62
   256
  6
BYLAYER
 49
-0.5
 62
   256
  6
BYLAYER
  0
ACDBPLACEHOLDER
  5
F
102
{ACAD_REACTORS
330
E
102
}
330
E
  0
SCALE
  5
4D
102
{ACAD_REACTORS
330
4C
102
}
330
4C
100
AcDbScale
 70
     0
300
1:1
140
1.0
141
1.0
290
     1
  0
SCALE
  5
4E
102
{ACAD_REACTORS
330
4C
102
}
330
4C
100
AcDbScale
 70
     0
300
1:2
140
1.0
141
2.0
290
     0
  0
SCALE
  5
4F
102
{ACAD_REACTORS
330
4C
102
}
330
4C
100
AcDbScale
 70
     0
300
1:4
140
1.0
141
4.0
290
     0
  0
SCALE
  5
50
102
{ACAD_REACTORS
330
4C
102
}
330
4C
100
AcDbScale
 70
     0
300
1:5
140
1.0
141
5.0
290
     0
  0
SCALE
  5
51
102
{ACAD_REACTORS
330
4C
102
}
330
4C
100
AcDbScale
 70
     0
300
1:8
140
1.0
141
8.0
290
     0
  0
SCALE
  5
52
102
{ACAD_REACTORS
330
4C
102
}
330
4C
100
AcDbScale
 70
     0
300
1:10
140
1.0
141
10.0
290
     0
  0
SCALE
  5
53
102
{ACAD_REACTORS
330
4C
102
}
330
4C
100
AcDbScale
 70
     0
300
1:16
140
1.0
141
16.0
290
     0
  0
SCALE
  5
54
102
{ACAD_REACTORS
330
4C
102
}
330
4C
100
AcDbScale
 70
     0
300
1:20
140
1.0
141
20.0
290
     0
  0
SCALE
  5
55
102
{ACAD_REACTORS
330
4C
102
}
330
4C
100
AcDbScale
 70
     0
300
1:30
140
1.0
141
30.0
290
     0
  0
SCALE
  5
56
102
{ACAD_REACTORS
330
4C
102
}
330
4C
100
AcDbScale
 70
     0
300
1:40
140
1.0
141
40.0
290
     0
  0
SCALE
  5
57
102
{ACAD_REACTORS
330
4C
102
}
330
4C
100
AcDbScale
 70
     0
300
1:50
140
1.0
141
50.0
290
     0
  0
SCALE
  5
58
102
{ACAD_REACTORS
330
4C
102
}
330
4C
100
AcDbScale
 70
     0
300
1:100
140
1.0
141
100.0
290
     0
  0
SCALE
  5
59
102
{ACAD_REACTORS
330
4C
102
}
330
4C
100
AcDbScale
 70
     0
300
2:1
140
2.0
141
1.0
290
     0
  0
SCALE
  5
5A
102
{ACAD_REACTORS
330
4C
102
}
330
4C
100
AcDbScale
 70
     0
300
4:1
140
4.0
141
1.0
290
     0
  0
SCALE
  5
5B
102
{ACAD_REACTORS
330
4C
102
}
330
4C
100
AcDbScale
 70
     0
300
8:1
140
8.0
141
1.0
290
     0
  0
SCALE
  5
5C
102
{ACAD_REACTORS
330
4C
102
}
330
4C
100
AcDbScale
 70
     0
300
10:1
140
10.0
141
1.0
290
     0
  0
SCALE
  5
5D
102
{ACAD_REACTORS
330
4C
102
}
330
4C
100
AcDbScale
 70
     0
300
100:1
140
100.0
141
1.0
290
     0
  0
SCALE
  5
5E
102
{ACAD_REACTORS
330
4C
102
}
330
4C
100
AcDbScale
 70
     0
300
1/128" = 1'-0"
140
0.0078125
141
12.0
290
     0
  0
SCALE
  5
5F
102
{ACAD_REACTORS
330
4C
102
}
330
4C
100
AcDbScale
 70
     0
300
1/64" = 1'-0"
140
0.015625
141
12.0
290
     0
  0
SCALE
  5
60
102
{ACAD_REACTORS
330
4C
102
}
330
4C
100
AcDbScale
 70
     0
300
1/32" = 1'-0"
140
0.03125
141
12.0
290
     0
  0
SCALE
  5
61
102
{ACAD_REACTORS
330
4C
102
}
330
4C
100
AcDbScale
 70
     0
300
1/16" = 1'-0"
140
0.0625
141
12.0
290
     0
  0
SCALE
  5
62
102
{ACAD_REACTORS
330
4C
102
}
330
4C
100
AcDbScale
 70
     0
300
3/32" = 1'-0"
140
0.09375
141
12.0
290
     0
  0
SCALE
  5
63
102
{ACAD_REACTORS
330
4C
102
}
330
4C
100
AcDbScale
 70
     0
300
1/8" = 1'-0"
140
0.125
141
12.0
290
     0
  0
SCALE
  5
64
102
{ACAD_REACTORS
330
4C
102
}
330
4C
100
AcDbScale
 70
     0
300
3/16" = 1'-0"
140
0.1875
141
12.0
290
     0
  0
SCALE
  5
65
102
{ACAD_REACTORS
330
4C
102
}
330
4C
100
AcDbScale
 70
     0
300
1/4" = 1'-0"
140
0.25
141
12.0
290
     0
  0
SCALE
  5
66
102
{ACAD_REACTORS
330
4C
102
}
330
4C
100
AcDbScale
 70
     0
300
3/8" = 1'-0"
140
0.375
141
12.0
290
     0
  0
SCALE
  5
67
102
{ACAD_REACTORS
330
4C
102
}
330
4C
100
AcDbScale
 70
     0
300
1/2" = 1'-0"
140
0.5
141
12.0
290
     0
  0
SCALE
  5
68
102
{ACAD_REACTORS
330
4C
102
}
330
4C
100
AcDbScale
 70
     0
300
3/4" = 1'-0"
140
0.75
141
12.0
290
     0
  0
SCALE
  5
69
102
{ACAD_REACTORS
330
4C
102
}
330
4C
100
AcDbScale
 70
     0
300
1" = 1'-0"
140
1.0
141
12.0
290
     0
  0
SCALE
  5
6A
102
{ACAD_REACTORS
330
4C
102
}
330
4C
100
AcDbScale
 70
     0
300
1-1/2" = 1'-0"
140
1.5
141
12.0
290
     0
  0
SCALE
  5
6B
102
{ACAD_REACTORS
330
4C
102
}
330
4C
100
AcDbScale
 70
     0
300
3" = 1'-0"
140
3.0
141
12.0
290
     0
  0
SCALE
  5
6C
102
{ACAD_REACTORS
330
4C
102
}
330
4C
100
AcDbScale
 70
     0
300
6" = 1'-0"
140
6.0
141
12.0
290
     0
  0
SCALE
  5
6D
102
{ACAD_REACTORS
330
4C
102
}
330
4C
100
AcDbScale
 70
     0
300
1'-0" = 1'-0"
140
12.0
141
12.0
290
     0
  0
DICTIONARYVAR
  5
1B6
102
{ACAD_REACTORS
330
1B5
102
}
330
1B5
100
DictionaryVariables
280
     0
  1
1:1
  0
ENDSEC
  0
EOF
